Korn - Clown Chords & Tabs

 

Clown Chords & Tabs

Korn Chords & Tabs

Version: 1 Type: Tab 0 ratings
1 star 2 stars 3 stars 4 stars 5 stars
comments

Clown Tab

Clown   Korn


Here's Clown by Korn. It's transcribed for a 6 string in standard tuning
and should sound pretty close to the original.


My Rig:
Squire Telecaster
Marshall 50 watt amp
Morley wah wah

My Favourite Bands:
Primus
Clutch
No Doubt

My Favourite guitar websites:
http://www.tabclawer.com    - good tab site
http://www.nodoubt.com   - no doubt's official site
http://www.guitarandbass.co.uk   - brilliant guitar lesson site


                                                     
E||---------------6b-------|---------------5b-------|
B||---------------6b-------|---------------5b-------|
G||------------------------|------------------------|
D||--8-8-8-8-7-------------|--8-8-8-8-7-------------|
A||--8-8-8-8-7-------------|--8-8-8-8-7-------------|
E||--6-6-6-6-5-------------|--6-6-6-6-5-------------|


                                                                     
---------------6b-------|---------------9b-------|------------------|
---------------6b-------|---------------9b-------|------------------|
------------------------|------------------------|------------------|
--8-8-8-8-7-------------|--8-8-8-8-7-------------|------------------|
--8-8-8-8-7-------------|--8-8-8-8-7-------------|------------------|
--6-6-6-6-5-------------|--6-6-6-6-5-------------|------------------|


                                              
------------------|--------------------------|
------------------|--------------------------|
------------------|--5--6--5--4--5--4--5--6--|
------------------|--5--6--5--4--5--4--5--6--|
------------------|--3--4--3--2--3--2--3--4--|
------------------|--------------------------|


                                                     
-------------------------|--------------------------|
-------------------------|--------------------------|
--5--4--5--4--5--6--4----|--5--6--5--4--5--4--5--6--|
--5--4--5--4--5--6--4----|--5--6--5--4--5--4--5--6--|
--3--2--3--2--3--4--2----|--3--4--3--2--3--2--3--4--|
-------------------------|--------------------------|


                                                     
-------------------------|--------------------------|
-------------------------|--------------------------|
--5--4--5--4--5--6--4----|--5--6--5--4--5--4--5--6--|
--5--4--5--4--5--6--4----|--5--6--5--4--5--4--5--6--|
--3--2--3--2--3--4--2----|--3--4--3--2--3--2--3--4--|
-------------------------|--------------------------|


                                                     
-------------------------|--------------------------|
-------------------------|--------------------------|
--5--4--5--4--5--6--4----|--5--6--5--4--5--4--5--6--|
--5--4--5--4--5--6--4----|--5--6--5--4--5--4--5--6--|
--3--2--3--2--3--4--2----|--3--4--3--2--3--2--3--4--|
-------------------------|--------------------------|


                                                     
-------------------------|--------------------------|
-------------------------|--------------------------|
--5--4--5--4--5--6--4----|--5--6--5--4--5--4--5--6--|
--5--4--5--4--5--6--4----|--5--6--5--4--5--4--5--6--|
--3--2--3--2--3--4--2----|--3--4--3--2--3--2--3--4--|
-------------------------|--------------------------|


                                                     
-------------------------|--------------------------|
-------------------------|--------------------------|
--5--4--5--4--5--6--4----|--5--6--5--4--5--4--5--6--|
--5--4--5--4--5--6--4----|--5--6--5--4--5--4--5--6--|
--3--2--3--2--3--4--2----|--3--4--3--2--3--2--3--4--|
-------------------------|--------------------------|


                                                     
-------------------------|--------------------------|
-------------------------|--------------------------|
--5--4--5--4--5--6--4----|--5--6--5--4--5--4--5--6--|
--5--4--5--4--5--6--4----|--5--6--5--4--5--4--5--6--|
--3--2--3--2--3--4--2----|--3--4--3--2--3--2--3--4--|
-------------------------|--------------------------|


                                                     
-------------------------|--------------------------|
-------------------------|--------------------------|
--5--4--5--4--5--6--4----|--5--6--5--4--5--4--5--6--|
--5--4--5--4--5--6--4----|--5--6--5--4--5--4--5--6--|
--3--2--3--2--3--4--2----|--3--4--3--2--3--2--3--4--|
-------------------------|--------------------------|


                                                     
-------------------------|--------------------------|
-------------------------|--------------------------|
--5--4--5--4--5--6--4----|--5--6--5--4--5--4--5--6--|
--5--4--5--4--5--6--4----|--5--6--5--4--5--4--5--6--|
--3--2--3--2--3--4--2----|--3--4--3--2--3--2--3--4--|
-------------------------|--------------------------|


                                                     
-------------------------|--------------------------|
-------------------------|--------------------------|
--5--4--5--4--5--6--4----|--5--6--5--4--5--4--5--6--|
--5--4--5--4--5--6--4----|--5--6--5--4--5--4--5--6--|
--3--2--3--2--3--4--2----|--3--4--3--2--3--2--3--4--|
-------------------------|--------------------------|


                                                     
-------------------------|--------------------------|
-------------------------|--------------------------|
--5--4--5--4--5--6--4b---|--5--6--5--4--5--4--5--6--|
--5--4--5--4--5--6--4b---|--5--6--5--4--5--4--5--6--|
--3--2--3--2--3--4-------|--3--4--3--2--3--2--3--4--|
-------------------------|--------------------------|

[ Tab from: http://www.guitartabs.cc/tabs/k/korn/clown_tab.html ]
                                                     
-------------------------|--------------------------|
-------------------------|--------------------------|
--5--4--5--4--5--6--4b---|--5--6--5--4--5--4--5--6--|
--5--4--5--4--5--6--4b---|--5--6--5--4--5--4--5--6--|
--3--2--3--2--3--4-------|--3--4--3--2--3--2--3--4--|
-------------------------|--------------------------|


                                                     
-------------------------|--------------------------|
-------------------------|--------------------------|
--5--4--5--4--5--6--4b---|--5--6--5--4--5--4--5--6--|
--5--4--5--4--5--6--4b---|--5--6--5--4--5--4--5--6--|
--3--2--3--2--3--4-------|--3--4--3--2--3--2--3--4--|
-------------------------|--------------------------|


                                                     
-------------------------|--------------------------|
-------------------------|--------------------------|
--5--4--5--4--5--6--4b---|--5--6--5--4--5--4--5--6--|
--5--4--5--4--5--6--4b---|--5--6--5--4--5--4--5--6--|
--3--2--3--2--3--4-------|--3--4--3--2--3--2--3--4--|
-------------------------|--------------------------|


                                                     
-------------------------|--------------------------|
-------------------------|--------------------------|
--5--4--5--4--5--6--4b---|--5--6--5--4--5--4--5--6--|
--5--4--5--4--5--6--4b---|--5--6--5--4--5--4--5--6--|
--3--2--3--2--3--4-------|--3--4--3--2--3--2--3--4--|
-------------------------|--------------------------|


                                                     
-------------------------|--------------------------|
-------------------------|--------------------------|
--5--4--5--4--5--6--4b---|--5--6--5--4--5--4--5--6--|
--5--4--5--4--5--6--4b---|--5--6--5--4--5--4--5--6--|
--3--2--3--2--3--4-------|--3--4--3--2--3--2--3--4--|
-------------------------|--------------------------|


                                                     
-------------------------|--------------------------|
-------------------------|--------------------------|
--5--4--5--4--5--6--4b---|--5--6--5--4--5--4--5--6--|
--5--4--5--4--5--6--4b---|--5--6--5--4--5--4--5--6--|
--3--2--3--2--3--4-------|--3--4--3--2--3--2--3--4--|
-------------------------|--------------------------|


                                              
-------------------------|-------------------|
-------------------------|-------------------|
--5--4--5--4--5--6--4b---|--2----------------|
--5--4--5--4--5--6--4b---|--2----------------|
--3--2--3--2--3--4-------|--0----------------|
-------------------------|-------------------|


                                               
--------------------------|-------------------|
--------------------------|-------------------|
--6--5--5--4--4--3--3--2--|--2----------------|
--6--5--5--4--4--3--3--2--|--2----------------|
--4--3--3--2--2--1--1--0--|--0----------------|
--------------------------|-------------------|


                                               
--------------------------|-------------------|
--------------------------|-------------------|
--6--5--5--4--4--3--3--2--|--2----------------|
--6--5--5--4--4--3--3--2--|--2----------------|
--4--3--3--2--2--1--1--0--|--0----------------|
--------------------------|-------------------|


                                               
--------------------------|-------------------|
--------------------------|-------------------|
--6--5--5--4--4--3--3--2--|--2----------------|
--6--5--5--4--4--3--3--2--|--2----------------|
--4--3--3--2--2--1--1--0--|--0----------------|
--------------------------|-------------------|


                                               
--------------------------|-------------------|
--------------------------|-------------------|
--6--5--5--4--4--3--3--2--|--2----------------|
--6--5--5--4--4--3--3--2--|--2----------------|
--4--3--3--2--2--1--1--0--|--0----------------|
--------------------------|-------------------|


                                               
--------------------------|-------------------|
--------------------------|-------------------|
--6--5--5--4--4--3--3--2--|--2----------------|
--6--5--5--4--4--3--3--2--|--2----------------|
--4--3--3--2--2--1--1--0--|--0----------------|
--------------------------|-------------------|


                                               
--------------------------|-------------------|
--------------------------|-------------------|
--6--5--5--4--4--3--3--2--|--2----------------|
--6--5--5--4--4--3--3--2--|--2----------------|
--4--3--3--2--2--1--1--0--|--0----------------|
--------------------------|-------------------|


                                               
--------------------------|-------------------|
--------------------------|-------------------|
--6--5--5--4--4--3--3--2--|--2----------------|
--6--5--5--4--4--3--3--2--|--2----------------|
--4--3--3--2--2--1--1--0--|--0----------------|
--------------------------|-------------------|


                                                   
--------------------------|-----------------------|
--------------------------|-------------11--------|
--6--5--5--4--4--3--3--2--|--2----2--2--10--------|
--6--5--5--4--4--3--3--2--|--2----2--2--8---------|
--4--3--3--2--2--1--1--0--|--0----0--0------------|
--------------------------|-----------------------|


                                                
-----------------------|-----------------------|
-------------11--------|-------------11--------|
----2--2--2--10--------|--2----2--2--10--------|
----2--2--2--8---------|--2----2--2--8---------|
----0--0--0------------|--0----0--0------------|
-----------------------|-----------------------|


                         
-----------------------||
-------------11--------||
----2--2--2--10--------||
----2--2--2--8---------||
----0--0--0------------||
-----------------------||


Comments