Korn - Children Of The Korn Chords & Tabs

 

Children Of The Korn Chords & Tabs

Korn Chords & Tabs

Version: 1 Type: Bass Tab 0 ratings
1 star 2 stars 3 stars 4 stars 5 stars
comments

Children Of The Korn Bass Tab

   
Band: Korn
Song: Children of the Korn
Written by Korn and Ice Cube
Album:Follow the leader
Tabbed by: Fernando Saavedra (hiv_k@hotmail.com)

Tune down 1 full step (A,E,A,D,G)
[BASS SYNTHESIZER IS USED ON THIS SONG]

Verse Jonathan's part

G---------------------------------------|
D---------------------------------------|
A---------------------------------------|
E---------------------------------------|
A--2-3-----------------2---3------------|

Ice Cube's part
[ Tab from: http://www.guitartabs.cc/tabs/k/korn/children_of_the_korn_btab.html ]
G---------------------------------------|
D---------------------------------------|
A---------------------------------------|
E---------------------------------------|
A--3-2-3---------------2---3------------|

Chorus

G---------------------------------------|
D---------------------------------------|
A---------------------------------------|  t= thumb slap
E---------------------------------------|
A--1-1-2-2-2-1-1-2----------------------|
t t t t t t t

Bridge

G---------------------------------------|
D---------------------------------------|
A---------------------------------------|  p= pull off
E---------------------------------------|
A--4p3--2---4-3p2-----------------------|

Thats it easy song good luck...comments or corrections send it to 
hiv_k@hotmail.com
Comments