Korn - Chi Chords & Tabs

 

Chi Chords & Tabs

Korn Chords & Tabs

Version: 3 Type: Bass Tab 0 ratings
1 star 2 stars 3 stars 4 stars 5 stars
comments

Chi Bass Tab

-------------------------------------------------------------------------
			     Chi - Korn
-------------------------------------------------------------------------

Tabbed By : MANNN
e-mail: Crazy_guitar66@yahoo.com

Tuning: Fieldy's tuning ADGCF

im suprised no one has come out with a better tab for this song. so here it is. remember he slaps this song.



F|-----------------------------------||
C|-----------------------------------|| intro
G|-----------------------------------||
D|-----------------------------------||
A|--1-h-3--2--x--0--1----------------||


F|-------------------------------------||
C|-------------------------------------|| i think he has the volume turned
G|-------------------------------------||  down. but this is the verse
D|-------------------------------------||
A|--1-h-2--1--x--0--1--0---------------||

[ Tab from: http://www.guitartabs.cc/tabs/k/korn/chi_btab_ver_3.html ]
F|---------------------------------------||
C|---------------------------------------||  chorus
G|---------------------------------------||
D|---------------------------------------||
A|--1-h-3--2---x--0--1-----------------||

F|-------------------------------------||
C|-------------------------------------||  bridge (these are two digit
G|-------14--------------14------------||       #'s example. twelve)
D|------------15-------------15--------||
A|-12--------------12------------13--12~--||

F|---------------------------------------||
C|---------------------------------------|| part of bridge
G|---------------------------------------||
D|---------------------------------------||
A|-0----1210-------0~------------------||

then it goes back to the first bridge riff. and then back to the chorus. 
well have fun. this song kicks a$$

plz rate this
Comments