Korn - Camel Song Chords & Tabs

 

Camel Song Chords & Tabs

Korn Chords & Tabs

Version: 1 Type: Tab 0 ratings
1 star 2 stars 3 stars 4 stars 5 stars
comments

Camel Song Tab

Artist: Korn
Song: Camel Song from the End of Days soundtrack

This song completely rules its one of the best korn songs ever
If you dont have the end of days soundtrack and you love Korn 
Get it the whole CD is worth it for just this one song. Or download it
if you can find it.
Tuning: ADGCFAD
you can figure out how many times to play each part
Intro/Verse Gtr1
Not sure about the notes but i know its something like this

D------------------------------14-14^-----------------------------------
A-14^-14-14^-14-14^-14^-14-14^-------14^-14-14^-14-14^-14^-14-14^-------
F----------------------------------------------------------------14-14^-

Verse Gtr 2 (dist w/whammy pedal. They also have a wah pedal goin but im not sure how he uses it in unison with the whammy)
 = is whammy pedal down, + is whammy pedal up
A-----------14^-14-15-----------14-=+=-
F-13-=-+-14-----------13-=-+-14--------
[ Tab from: http://www.guitartabs.cc/tabs/k/korn/camel_song_tab.html ]
Midway through he does this when Gtr 1 fades out
(whammy pedal is down whole time w/wah-wah goin) ///=tremolo
A-15///---14///---15///---14///---(fade out)
F------------------------------------------------13///---

Chorus (theres a melody in the background that sounds cool but i cant figure it out so here the plain old heavy part)

D----------------0-
A----------------0-
F----------------0-
C----------------x-
G-2-2--2--2-4-3--3-
D-2-2--2--2-4-3--3-
A-0-0--0--0-2-1--1-

The interlude is weird i dont know what it is. Heres the bridge its as right as can be.

Gtr 1: (w/wah, +is pedal up, = is pedal down)

A---0-0-=0-----=0-0-+0-
F----------------------
C----------------------
G----------------------
D-2--------2-2---------
A-0--------0-0---------

Gtr 2: (w/whammy, +pedal up, =pedal down)

D---7-7-=7-------7---
A--------------------
F--------------------
C--------------------
G--------------------
D-9--------9-9-x-----
A-7--------7-7-x---7-

Last Chorus
~~~~~is a vibrato its hard to do on the low string but thats what 
their playin i think.
G-2-2--2--2-4-3--3~~~~
D-2-2--2--2-4-3--3~~~~
A-0-0--0--0-2-1--1~~~~

Comments