Korn - Camel Song Chords & Tabs

 

Camel Song Chords & Tabs

Korn Chords & Tabs

Version: 2 Type: Bass Tab 0 ratings
1 star 2 stars 3 stars 4 stars 5 stars
comments

Camel Song Bass Tab

   
-------------------------
***Camel Song***  by KoRn
-------------------------

Written by Korn

Tabbed by SL1PKNOT (101355.1440@compuserve.com)

5-string Bass in Dropped A tuning (A,E,A,D,G)
All notes are slapped except where indicated


INTRO (after guitar intro)

G|-----------------------------------------|
D|-----------------------------------------|  USE YOUR VOLUME
A|-----------------------------------------|      BUTTON
E|-----------------------------------------|
A|--0--------------------------------------|

SECOND INTRO (when the drums come in) AND 1 st VERSE

G|-----------------------------|
D|-----------------------------|  Play 16x
A|-----------------------------|  (at last time play :
E|-----------------------------|  A|-1---1-X-X-1---1-1--|)
A|-1---1-X-X-1---1---1-X-X-1---|
        (2-2)         (2-2)

2nd VERSE ("You can see I tried this all for you...")
G|-----------------------------------------|
D|-----------------------------------------|    Play 4x
A|-----------------------------------------|    (don't play last
E|-----------------------------------------|     "1" at 4th time)
A|-1/12----1-1/12----1-1/12----1-1/12----1-|
                                This riff begins on the slide

CHORUS
G|-----------------------------------------|
D|-----------------------------------------|
A|-----------------------------------------|    Play 8x
E|-----------------------------------------|
A|-1-1---1---1-1 / 7-------------(X)-------|
                        play this note on 2nd and 6th time with the snare drum
[ Tab from: http://www.guitartabs.cc/tabs/k/korn/camel_song_btab_ver_2.html ]
After silence, 2nd VERSE part
G|-----------------------------------------|
D|-----------------------------------------|
A|-----------------------------------------|    Play 4x
E|-----------------------------------------|   (don't play last
A|-1/12----1-1/12----1-1/12----1-1/12----1-|    "1" at 4th time)

Then, 1st VERSE part
G|-----------------------------|
D|-----------------------------|
A|-----------------------------|   Play 8x
E|-----------------------------|   (No fill)
A|-1---1-X-X-1---1---1-X-X-1---|
        (2-2)         (2-2)

CHORUS
G|-----------------------------------------|
D|-----------------------------------------|
A|-----------------------------------------|    Play 8x
E|-----------------------------------------|
A|-1-1---1---1-1 / 7-------------(X)-------|

After silence, BRIDGE
G|----------------------------------------------|
D|----------------15-----------------------15---|
A|--------------14----------------------14------|
E|------------13---------------------13---------|
A|-0--7-0----------------0--7-0-----------------|
                                                   ***Don't slap***
G|----------------------------------------------|
D|----------------15----------------------------|
A|--------------14--------------------(14)------|
E|------------13---------------------13-|-------|
A|-0--7-0----------------0--7-0---------|-------|
                                        |_________muted note

During the "Take me away" part, same as 1st INTRO
G|-----------------------------|
D|-----------------------------|
A|-----------------------------|   Play 8x
E|-----------------------------|   (No fill)
A|-1---1-X-X-1---1---1-X-X-1---|
        (2-2)         (2-2)

CHORUS
G|-----------------------------------------|
D|-----------------------------------------|  Play 16x
A|-----------------------------------------|  with some fills like
E|-----------------------------------------|  "111" instead of "1-1"
A|-1-1---1---1-1 / 7-------------(X)-------|  not big changes...



I think that's it. Maybe not the bridge ... Mail me.
OK. Have fun...

                        (lyrics found on www.altern.org/klown,
                         the best KoRn french site.)
Comments