Korn - Blind Chords & Tabs

 

Blind Chords & Tabs

Korn Chords & Tabs

Version: 7 Type: Tab 0 ratings
1 star 2 stars 3 stars 4 stars 5 stars
comments

Blind Tab

   
KoRn, Blind.
 Tabbed by Cavan, Powerstruck15@cs.com.
  
Tuning- C-G-C-F-A-D

Intro
D|-0-0-0-0----|------------|-------------------------|
A|-5-5-5-5----|-Distortion-|-(After "Are you Ready")-|
F|-3-3-3-3----|------------|-------------------------|
C|------------|------------|-2-4-2-5-2-4-2-5-7-7-7-7-|
G|------------|-2-4-2-5----|-2-4-2-5-2-4-2-5-7-7-7-7-|
C|------------|-2-4-2-5----|-2-4-2-5-2-4-2-5-7-7-7-7-|

Verse 1,2
D|----------|-0~~--^1^0~-|
A|----------|-0--~~^1^0~-|
F|----------|------------|
C|----------|-Other G----|
G|-0--------|------------|
C|-0--------|------------|
[ Tab from: http://www.guitartabs.cc/tabs/k/korn/blind_tab_ver_7.html ]
Chorus
F|---------------------|
C|-0-0-1--0-0-0-0--2/1-|
G|-0-0-1--0-0-0-0--2/1-|
C|-0-0-1--0-0-0-0--2/1-|

Pre-Bridge
D|-0-0-0-0--0-0-0-0-|
A|-5-5-5-5--0-0-0-0-|
F|-3-3-3-3--0-0-0-0-|
C|------------------|

Bridge  ("I can see, I can see, I'm going Blind")
D|------------------|-0-~~~0-~~~-|
A|------------------|-0-~~~0-~~~-|
F|------------------|------------|
C|------------------|-other G----|
G|-0--------1-------|------------|
C|-0--------1-------|------------|

Outro
D|-16------|
A|---15/12-|
F|---------|  -Bottom part is bass, the upper
C|---------|    half is guitar.
G|--2---3--|
C|-2-2-3-3-| 
:: Ultimate Guitar Archive :: 
http://www.ultimate-guitar.com 

 
Comments