Korn - Blind Chords & Tabs

 

Blind Chords & Tabs

Korn Chords & Tabs

Version: 3 Type: Tab 1 rating
1 star 2 stars 3 stars 4 stars 5 stars
comments

Blind Tab


-0000-
-5555-
-3333- x18
-0000-
------
------

-------------------
-------------------
-------------------
------------------- x2
-------------------
-0-2-0-3-----------

-------------------
-------------------
-------------------
------------------- x4
-------------------
-0-2-0-3-0-2-0-3---

After "Are you ready"
-------------------------
-------------------------
------------------------- 
-------------------------
-----------------1-1-1-1-
-0-2-0-3-0-2-0-3---------

---------------------------
---------------------------
---------------------------
---------------------------
-------------------1-1-1-1-
-0-0-0-0-3-0-2-0-3---------

Verse
Guitar 1                        Guitar 2 
------0--------------------     -----------:-------0--------
------3^-------------------     -----------:-------0--------
---------------------------     -----------:-------2--------
---------------------------     ----2------:-------3-------- 
---------------------------     ----0------:-------1--------
---------------------------     -----------:----------------
[ Tab from: http://www.guitartabs.cc/tabs/k/korn/blind_tab_ver_3.html ]
Chorus
--------------------------------------
--------------------------------------
--------------------------------------
--------------------------------------
--7/-99---7/-99--7/-9-8-7-6-----------
--5/-77---5/-77--5/-7-6-5-4-----------

"Deeper and deeper is all..."
-------------------------
-------------------------
------------------------- 
-------------------------
-----------------1-1-1-1-
-0-2-0-3-0-2-0-3---------

---------------------------
---------------------------
---------------------------
---------------------------
-------------------1-1-1-1-
-0-0-0-0-3-0-2-0-3---------

Interlude
"I can see I can see and I'm going blind"
-------0000-
-5-----5555-
----3--3333-
-------0000-
------------
------------

"I can see I can see and I'm going blind"
-0----0-------
-0----0-------
-0----2-------
-4----3-------
-2----1-------
--------------

"I'm Blind I'm Blind..."
-------------------------
-------------------------
------------------------- 
-------------------------
-----------------1-1-1-1-
-0-2-0-3-0-2-0-3---------

Thanks for checking out my tab, please visit my bands website at www.geocities.com/fukfaste_records/
Comments