Korn - Blind Chords & Tabs

 

Blind Chords & Tabs

Korn Chords & Tabs

Version: 10 Type: Tab 0 ratings
1 star 2 stars 3 stars 4 stars 5 stars
comments

Blind Tab

   
O.K. Korn is the best band period. I picked tabbing these songs because, 
as far as their first disc goes, they're their best songs. My setup is an 
Ibanez RG720, Digitech RP 100, some fender amp and alittle expression pedal 
for the whammy and wha parts. If you wanna play all korns songs, this is the 
pedal you need, you can play all of their songs with it. I may do something 
similar with their other albums (life is peachy,follow the leader, issues, 
untouchables) if you don't have one of these discs, get it now, their great. 
To quote korn Are you ready?????????????

From Korn Blind and Fagget

Blind
Intro w/a slight flanger
D----------------------------------|
A-5-5-5-5------------5-5-5-5-------|
F-3-3-3-3------------3-3-3-3-------|
C----------------------------------|
G----------------------------------|
D----------------------------------|
A----------------------------------|

You will notice I only tab one guitar thats cuz I wanna, but for the blind 
intro it's a rare part where you can play both guitars different parts with one guitar.
Fill
P.m.     P.m.
D---------------|
A---------------|
F---------------|
C-----11-----12-|
G-----10-----11-|
D-----9------10-|
A-0--------0----|

Other Fillthing

D-----------------|
A-----------------|
F-----------------|
C-----------------|
G-----------------|
D-----------------|
A-0-2-0-3-0-2-0-3-|

Then
D---------|
A---------|
F---------|
C---------|
G---------|
D---------|
A-6-6-6-6-|

Main Riff 
D-------------------------|
A-------------------------|
F-------------------------|
C-------------------------|
G-------------------------|
D-------------------------|
A-0-2-0-3-0-2-0-3-6-6-6-6-|

Fill
D---------------------------|
A---------------------------|
F---------------------------|
C---------------------------|
G---------------------------|
D---------------------------|
A-0-0-0-0-3-0-2-0-3-6-6-6-6-|

Verse while the other guitar does the wha riff
D---------------|
A---------------|
F---------------|
C---------------|
G-7-----------8-|
D-7-----------8-|
A-5-----------5-|

Interlude
D---------------------------------------------------|
A---------------------------------------------------|
F-------------------------------------------------0-|
C-------------------------------------------------0-|
G-------------8-----------------------8-----------6-|
D-7-7/8-7-7-8-6-7/8-7-7-8-6-7/8-7-7-8-6-7/8-7-7-8-6-|
A-5-5/6-5-5-6---5/6-5-5-6-4-5/6-5-5-6---5/6-5-5-6-4-|

Fill in the bridge
                 Harm.--|
D-------------------------|
A----------------5-5-5-5--|
F-------------------------|
C-------------------------|
G-------------------------|
D-------------------------|
A-0-2-0-3-0-2-0-3---------|

Other Bridge riff
D-----------------------------|
A--------5-5-5-5------5-5-5-5-|
F-0------3-3-3-3------3-3-3-3-|
C-0-------------------0-0-0-0-|
G-0---------------------------|
D-0---------------------------|
A-----------------------------|

Fill
          P.M.-------|
D--------------------------------|
A------------------------5-5-5-5-|
F------------------------3-3-3-3-|
C--------------------------------|
G--------------------------------|
D-5----5-----5-----5-------------|
A-3----3-----3-----3-------------|
[ Tab from: http://www.guitartabs.cc/tabs/k/korn/blind_tab_ver_10.html ]
Outro
   full         full  full pre-bend release
D---24^---------24^---------|
A----------------------15---|
F----------------------17^--|
C---------------------------|
G---------------------------|
D---------------------------|
A---------------------------|

Faget

Intro/
D-------------------------------|
A-------------------------------|
F-------------------------------|
C-------------------------------|
G-------------------15-15-15-15-|
D-------7-----------14-14-14-14-|
A-0-0-0-0-0-0-0-0-0-13-13-13-13-|

After a few repeats, change the rythymn

Fill
              P.M.---------|
D--------------------------|
A--------------------------|
F--------------------------|
C--------------------------|
G--------------------------|
D-------7-----7-8---7-8----|
A-0-0-0-0-0-0-----9-----8--|

Main Riff
                                           P.M.---------|
D-------------------------------------------------------|
A-------------------------------------------------------|
F-------------------------------------------------------|
C-------------------16-16-16-16-------------------------|
G-------------------15-15-15-15-------------------------|
D-------------------14-14-14-14-------------7-8---7-8---|
A-0-0-0-0-0-0-0-0-0-13-13-13-13-0-0-0-0-0-0-----9-----8-|

Verse roll back your volume and add a slight chorus
D-----------7-------|
A-13-11\4--------6--|
F---------7----4----|
C-------------------|
G-------------------|
D-------------------|
A-------------------|

Last time add this and let it ring as much as possible with the 4-6 chord
D---0---|
A-0---2-|
F-------|
C-------|
G-------|
D-------|
A-------|

Chourus Bit
                P.M.--|
D--------------------------|
A--------------------------|
F--------------------------|
C--------------------------|
G--------------------------|
D----------------------3-3-|
A-0-0-0-0-0-0-0--0-0-0-1-1-|

3rd verse fill (same settings as original verse)
D----------7----|
A-13-11\4----4--|
F--------7------|
C---------------|
G---------------|
D---------------|
A---------------|

Interlude
P.M.-----------------------| Volume at halfway Okay, live this is played with a flanger, but on the record, there are no effects
D--------------------------|
A--------------------------|
F--------------------------|
C--------------------------|
G--------------------------|
D---------7--------8-----8-|
A-0-0-0-0----0-0-0---0-0---|

Last time when JOn starts to yell don't do the bit with the 8th fretand the zeros

D----------------------------------------------------|
A----------------------------------------------------|
F----------------------------------------------------|
C----------------------------------------------------|
G---------9------10----10----------9---------10----10|
D---------7------8-----8-----------7---------8-----8-|
A-0-0-0-0---0-0-0--0-0-----0-0-0-0---0-0-0-0---0-0---|

Then THis Riff
D------------------|
A------------------|
F------------------|
C------------------|
G---4-----4--5--4--|
D-2-2--3--2--3--2--|
A-0----1-----------|

Last interlude riff, 
P.M.------------------------|
D---------------------------|
A---------------------------|
F---------------------------|
C---------------------------|
G-2-2-2-2-2-2-2-2-2-3-3-3-3-|
D---------------------------|
A---------------------------|

And thats it if you have any other Korn songs you'd like tabbed, any at all I'll 
get to them if I'm not too lazy.Put the songs in the correction box that you want tabbed
Comments