Korn - Blind Chords & Tabs

 

Blind Chords & Tabs

Korn Chords & Tabs

Version: 8 Type: Bass Tab 0 ratings
1 star 2 stars 3 stars 4 stars 5 stars
comments

Blind Bass Tab

   
Blind
This is what KoRn Plays in Concert
Tabbed By Fieldy Snuttz
Tuning: A,D,G,C,F

F|-------------------------------------------------------------|
C|-------------------------------------------------------------|
G|----------14-------------------------------------------------|
D|--------13---13--11------------------------------------------|
A|------12---------------2-------------------------------------|


F|-------------------------------------------------------------|
C|-------------------------------------------------------------|
G|-------------------------------------------------------------|   x2
D|---------------------1-1-1-1---------------------1-1-1-1-----|
A|----0-2-0-3--0-2-0-3------------0-2-0-3--0-2-0-3-------------|


F|-------------------------------------------------------------|
C|-------------------------------------------------------------|
G|-------------------------------------------------------------|    
D|----------------------1-1-1-1---------------------1-1-1-1----|
A|----0-2-0-3--0-2-0-3------------0-2-0-3--0-2-0-3-------------|


F|-------------------------------------------------------------|
C|-------------------------------------------------------------|
G|-------------------------------------------------------------|
D|----------------------1-1-1-1----------------------1-1-1-1---|
A|----0-2-0-3--0-2-0-3------------0-0-0-0--3-0-2-0-3-----------|


F|-------------------------------------------------------------|
C|-------------------------------------------------------------|
G|-------------------------------------------------------------|
D|-------------------------------------------------------------|
A|----0--0-0-0-1-1---1-1-1-0-0---0-0-0-1-1---------------------|


F|-------------------------------------------------------------|
C|-------------------------------------------------------------|
G|-------------------------------------------------------------|
D|-------------------------6------------------------5----------|
A|----5-6/5\6-5--6-6-6/5\6-----5-6/5\6-5--6-6-6/5\6------------|


F|-------------------------------------------------------------|
C|-------------------------------------------------------------|
G|-------------------------------------------------------------|
D|-------------------------4------------------------6----------|
A|----5-6/5\6-5--6-6-6/5\6-----5-6/5\6-6--6-6-6/5\6------------|


F|-------------------------------------------------------------|
C|-------------------------------------------------------------|
G|-------------------------------------------------------------|
D|-------------------------------------------------------------|
A|----0--0-0-0-1-1---1-1-1-0-0---0-0-0-1-1---------------------|


F|-------------------------------------------------------------|
C|-------------------------------------------------------------|
G|-------------------------------------------------------------|
D|-------------------------6------------------------5----------|
A|----5-6/5\6-5--6-6-6/5\6-----5-6/5\6-5--6-6-6/5\6------------|

[ Tab from: http://www.guitartabs.cc/tabs/k/korn/blind_btab_ver_8.html ]
F|-------------------------------------------------------------|
C|-------------------------------------------------------------|
G|-------------------------------------------------------------|
D|-------------------------4------------------------6----------|
A|----5-6/5\6-5--6-6-6/5\6-----5-6/5\6-6--6-6-6/5\6------------|


F|-------------------------------------------------------------|
C|-------------------------------------------------------------|
G|-------------------------------------------------------------|   
D|---------------------1-1-1-1---------------------1-1-1-1-----|
A|----0-2-0-3--0-2-0-3------------0-2-0-3--0-2-0-3-------------|


F|-------------------------------------------------------------|
C|-------------------------------------------------------------|
G|-------------------------------------------------------------|    
D|----------------------1-1-1-1---------------------1-1-1-1----|
A|----0-2-0-3--0-2-0-3------------0-2-0-3--0-2-0-3-------------|



F|-------------------------------------------------------------|
C|-------------------------------------------------------------|
G|-------------------------------------------------------------|    
D|----------------------1-1-1-1----------------------1-1-1-1---|
A|----0-2-0-3--0-2-0-3------------0-0-0-0--3-0-2-0-3-----------|


F|-------------------------------------------------------------|
C|-------------------------------------------------------------|
G|-------------------------------------------------------------|
D|-------------------------------------------------------------|
A|----0--0-0-0-1-1---1-1-1-0-0---0-0-0-1-1---------------------|

  This is the part where Jonathan Davis Screams I'm Goin' Blind
F|-------------------------------------------------------------|
C|-------------------------------------------------------------| Slap      
G|-------------------------------------------------------------| These
D|-------------------------------------------------------------| Two
A|---0-0-------------------------------------------------------| Notes


F|-------------------------------------------------------------|
C|-------------------------------------------------------------|
G|-------------------------------------------------------------|   x2
D|---------------------1-1-1-1---------------------1-1-1-1-----|
A|----0-2-0-3--0-2-0-3------------0-2-0-3--0-2-0-3-------------|


F|-------------------------------------------------------------|
C|-------------------------------------------------------------|
G|-------------------------------------------------------------|    
D|----------------------1-1-1-1---------------------1-1-1-1----|
A|----0-2-0-3--0-2-0-3------------0-2-0-3--0-2-0-3-------------|


F|-------------------------------------------------------------|
C|-------------------------------------------------------------|
G|-------------------------------------------------------------|
D|----------------------1-1-1-1----------------------1-1-1-1---|
A|----0-2-0-3--0-2-0-3------------0-0-0-0--3-0-2-0-3-----------|


They Don't Play the end in concert
So I didn't tab it
Comments