Korn - Blind Chords & Tabs

 

Blind Chords & Tabs

Korn Chords & Tabs

Version: 5 Type: Bass Tab 0 ratings
1 star 2 stars 3 stars 4 stars 5 stars
comments

Blind Bass Tab

This is the way it should be played

intro let "( )" notes ring  :15           :31
 f-------------------------------------- --------------
 c-------------------------------------- --------------
 g-------14-(14)------------------------ --------------
 d-----13-------13-(13)--11-(11)--(11)-- ---0-(0)------
 a---12--------------------------------- --------------

   after "are you ready"  :52 
 f--------------------------------------
 c--------------------------------------
 g--------------------------------------
 d------------------------1-1-1-1-------        x4
 a--0-2--0-3--0-2--0-3------------------

           break    1:03
 f--------------------------------------
 c--------------------------------------
 g--------------------------------------
 d------------------------1-1-1-1-------        x4
 a--0-2--0-3--0-2--0-3------------------

 f--------------------------------------
 c--------------------------------------
 g--------------------------------------
 d------------------------1-1-1-1-------        x1  
 a--0-0-0-0-3-0-2-0-3-------------------

 f--------------------------------------
 c--------------------------------------
 g--------------------------------------
 d------------------------1-1-1-1-------        x3
 a--0-2--0-3--0-2--0-3------------------

 f-------------------------------------- -------------------------------
 c-------------------------------------- -------------------------------
 g-------------------------------------- -------------------------------
 d--0----------(0)-0-0----(0)----0------ -1------(1)---1---1--1--(1)---1
 a-------------------------------------- -------------------------------

 f-----------------------------------------------------------------------------
 c-----------------------------------------------------------------------------
 g-----------------------------------------------------------------------------
 d------------------------6-------------------------4-------------------------6
 a--5---5/6-5-5---5-5-5/6-----5---5/6-5-5---5-5-5/6-----5---5/6-5-5---5-5-5/6--
[ Tab from: http://www.guitartabs.cc/tabs/k/korn/blind_btab_ver_5.html ]
 f--------------------------------------
 c--------------------------------------
 g--------------------------------------
 d------------------------6--(6)--------
 a--5---5/6-5-5---5-5-5/6---------------
 
 f--------------------------------------
 c--------------------------------------
 g--------------------------------------
 d------------------------1-1-1-1-------        x4
 a--0-2--0-3--0-2--0-3------------------

 f--------------------------------------
 c--------------------------------------
 g--------------------------------------
 d------------------------1-1-1-1-------        x1  
 a--0-0-0-0-3-0-2-0-3-------------------

 f--------------------------------------
 c--------------------------------------
 g--------------------------------------
 d------------------------1-1-1-1-------        x1
 a--0-2--0-3--0-2--0-3------------------

 f--------------------------------------
 c--------------------------------------
 g--------------------------------------
 d------------------------1-1-1-1-------        x1  
 a--0-0-0-0-3-0-2-0-3-------------------

 f--------------------------------------
 c--------------------------------------
 g--------------------------------------
 d----0-----0------0------0-------------
 a-------------------------------------- 
   
   "i can see I can see....."
 f-------------------------------------- -------------------------------
 c-------------------------------------- -------------------------------
 g-------------------------------------- -------------------------------
 d--0----------(0)-0-0----(0)----0------ -1------(1)---1---1--1--(1)---1
 a-------------------------------------- -------------------------------

    I'm blind, I'm blind"
 f--------------------------------------
 c--------------------------------------
 g--------------------------------------
 d------------------------1-1-1-1-------        x3
 a--0-2--0-3--0-2--0-3------------------
   
   outro
 f---------------------------------------------------------------------------
 c---------------------------------------------------------------------------
 g-14-(14)------15-(15)-------14-(14)-----15-(15)--------14-(14)------15-(15)
 d--------12-13---------13-12--------12-13---------13--12--------12-13-------
 a---------------------------------------------------------------------------

 f--------------------------------------
 c--------------------------------------
 g----14-(14)------15-(15)--------------
 d-12--------12-14--------14------------
 a--------------------------------------
Comments