Korn - Blind Chords & Tabs

 

Blind Chords & Tabs

Korn Chords & Tabs

Version: 4 Type: Bass Tab 0 ratings
1 star 2 stars 3 stars 4 stars 5 stars
comments

Blind Bass Tab

INTRO

Wait 6x Before Playing (Start at the VERY End of 4th Intro Riff on Guitar).

G--||--------------------------||------------------------||
D--||-------7h-----------------||------------------------||
A--||-----6--------6h-----4h---||--0h--------------------||
D--||-7------------------------||------------------------||

Wait 3 Measures Then Wait for Guitar to Play 02 03 02 and Play
G--||--------------------------------------------------|| \  /  ----
D--||--------------------------------------------------||  \/      /
A--||--------------------------------------------------||  /\    -- 
D--||--0-----------------------------------------------|| /  \  /___

Wait 4 More Measures, Then You Start With...

G--||--------------------------------------------------|| \  /  ----
D--||--------------------1111---------------------1111-||  \/      /
A--||-0-2--0-3--0-2--0-3-------0-2--0-3--0-2--0-3------||  /\    -- 
D--||--------------------------------------------------|| /  \  /___

Break.. Then

G--||--------------------------------------------------|| \  /  ----
D--||--------------------1111---------------------1111-||  \/      /
A--||-0-2--0-3--0-2--0-3-------0-2--0-3--0-2--0-3------||  /\    -- 
D--||--------------------------------------------------|| /  \  /___

G--||--------------------------------------------------||
D--||------------------1111---------------------1111---||
A--||-0000-3--0-2--0-3-------0-2--0-3--0-2--0-3--------||
D--||--------------------------------------------------||


G--||--------------------------------------------------||
D--||--------------------1111---------------------1111-||
A--||-0-2--0-3--0-2--0-3-------0-2--0-3--0-2--0-3------||
D--||--------------------------------------------------||

1st & 2nd Verses (Listen for a "Click" Noise to Hear the Bass Timing).

G--||--------------------------------------------------||
D--||--------------------------------------------------||
A--||--------------------------------------------------||
D--||-0h---0-0--0-1h---1--1-1---1----------------------||
								___
G--||--------------------------------------------------|| \  /     \ 
D--||--------------------------------------------------||  \/    __/
A--||--------------------------------------------------||  /\      \
D--||-0h---0--0-0---0-1h---1--1-1---1------------------|| /  \  ___/

1st & 2nd Choruses.  Both Verses, Hold Last Note on Repeat.
[ Tab from: http://www.guitartabs.cc/tabs/k/korn/blind_btab_ver_4.html ]
G--||--------------------------------------------------|| \  /  ----
D--||--------------------------------------------------||  \/      /
A--||--------------------------------------------------||  /\    -- 
D--||-0-0/100--000/1-6-0-0/100--000/1-4----------------|| /  \  /___

Bridge

G--||--------------------------------------------------|| \  /  ----
D--||--------------------1111---------------------1111-||  \/      /
A--||-0-2--0-3--0-2--0-3------0-2--0-3--0-2--0-3-------||  /\    -- 
D--||--------------------------------------------------|| /  \  /___

G--||--------------------------------------------------||
D--||------------------1111----------------------1111--||
A--||-0000-3--0-2--0-3--------0-2--0-3--0-2--0-3-------||
D--||--------------------------------------------------||

Hold Last Note 4 Measures, Then Wait 4 Measures Before 3rd Chorus.

G--||--------------------------------------------------||-----------------|
D--||--------------------1111--------------------1111--||-0h--------------|
A--||-0-2--0-3--0-2--0-3--------0000-3--0-2--0-3-------||-----------------|
D--||--------------------------------------------------||-----------------|

3rd Chorus

G--||--------------------------------------------------||
D--||--------------------------------------------------||
A--||--------------------------------------------------||
D--||-0h---0-0--0-1h---1--1-1---1----------------------||

G--||--------------------------------------------------|| \  /  ----
D--||--------------------------------------------------||  \/      /
A--||--------------------------------------------------||  /\    -- 
D--||-0h---0--0-0---0-1h---1--1-1---1------------------|| /  \  /___

G--||--------------------------------------------------||
D--||-------------------------------------------1111---||
A--||---------------------------------3--3--3-3--------||
D--||-0h---0--0-0---0-1h---1--1-1---1------------------||

Outtro

G--||--------------------------------------------------|| \  /    /|
D--||--------------------1111---------------------1111-||  \/    / |
A--||-0-2--0-3--0-2--0-3-------0-2--0-3--0-2--0-3------||  /\   /__|_
D--||--------------------------------------------------|| /  \     |

Repeat Last Part Until Fade Out

G--||-2-----3---||-----2-----3-------------------------||
D--||---0-------||*---0---0-1---1---------------------*||
A--||-----1---1-||*-----------------------------------*||
D--||-----------||-------------------------------------||
Comments