Korn - Blame Chords & Tabs

 

Blame Chords & Tabs

Korn Chords & Tabs

Version: 2 Type: Tab 0 ratings
1 star 2 stars 3 stars 4 stars 5 stars
comments

Blame Tab

Band- Korn
Song- Blame
Album- Untouchables

INTRO
Riff 1 distortion

D||------------------------------------------------------||
A||------------------------------------------------------||
F||------------------------------------------------------|| 
C||------------------------------------------------------|| 
G||------------------------------------------------------||
D||------------------------------------------------------||
A||--01010--1-0--1-0--0101--3----------------------------||



VERSE Riff

D||------------------------------------------------------||
A||------------------------------------------------------||
F||------------------------------------------------------|| 
C||------------------------------------------------------||  
G||------------------------------------------------------|| 
D||------------------------------------------------------||
A||------------------------------------------------------||
              

CHORUS
[ Tab from: http://www.guitartabs.cc/tabs/k/korn/blame_tab_ver_2.html ]
D||------------------------------------------------------||
A||------------------------------------------------------||
F||------------------------------------------------------||
C||------------------------------------------------------||
G||------------------------------------------------------||
D||------------------------------------------------------||
A||--01010--1-0--1-0--0101--3----------------------------||
         

CHORUS

D||------------------------------------------------------||
A||------------------------------------------------------|| 
F||--------------------------0-----0---------------------||
C||---------5-5-5----------------------------------------||
G||--2-2-2--5-5-5--5-5---7-7---6-6---5-------------------||
D||--2-2-2--3-3-3--5-5---7-7---6-6---5-------------------||
A||--0-0-0---------3-3---5-5---4-4---3-------------------||


Break

D||----12----14----15----17--14--------------------------|| 
A||------------------------------15----------------------|| 
F||------------------------------------------------------|| 
C||------------------------------------------------------|| 
G||------------------------------------------------------|| 
D||------------------------------------------------------|| 
A||------------------------------------------------------||
Comments