Korn - Blame Chords & Tabs

 

Blame Chords & Tabs

Korn Chords & Tabs

Version: 1 Type: Bass Tab 0 ratings
1 star 2 stars 3 stars 4 stars 5 stars
comments

Blame Bass Tab

   
KoRn
Untouchables- Blame
5 String
Tuning dropped down 1 whole step
Low to High (A,D,G,C,F)

Intro-no bass

Second Intro/Chorus
F-----------------------------
C-----------------------------
G-----------------------------
D-----------------------------
A--0-0-0-0-3-0-3-0-3-0-5-5-5-5

Verse:
F-----------------------------
C-----------------------------
G-----------------------------
D-----------------------------
A--0-0-3-x-x-x-x-------------- Listen to song for timing of the musted notes

Chorus
F-----------------------------
C-----------------------------
G-----------------------------
D-----------------------------
A--0-0-0-0-3-0-3-0-3-0-5-5-5-5
[ Tab from: http://www.guitartabs.cc/tabs/k/korn/blame_btab.html ]
Verse:
F-----------------------------
C-----------------------------
G-----------------------------
D-----------------------------
A--0-0-3-x-x-x-x-------------- Listen to song for timing of the musted notes

Chorus
F-----------------------------
C-----------------------------
G-----------------------------
D-----------------------------
A--0-0-0-0-3-0-3-0-3-0-5-5-5-5

Chorus 2
F-----------------------------
C-----------------------------
G-----------------------------
D-----------------------------
A--0002-2222-5555-4444--------

Solo/Bridge
F-----------------------------
C-----------------------------
G-----------------------------
D-----------------------------
A--0-3-0-0-0-0-4/3-0-3-0-0-3/1

Chorus
F-----------------------------
C-----------------------------
G-----------------------------
D-----------------------------
A--0-0-0-0-3-0-3-0-3-0-5-5-5-5

Chorus 2
F-----------------------------
C-----------------------------
G-----------------------------
D-----------------------------
A--0002-2222-5555-4444--------

Thats it have fun.
Comments