Korn - Beg For Me Chords & Tabs

 

Beg For Me Chords & Tabs

Korn Chords & Tabs

Version: 6 Type: Tab 0 ratings
1 star 2 stars 3 stars 4 stars 5 stars
comments

Beg For Me Tab

Band-KoRn
song-Beg for me
tabbed by godsmackthatkid


Intro:(Guitar1)

d|--------------|
a|--------------|
F|--0--0---0--0-|
C|-6--6---6--6--|
G|--------------|
D|--------------|
A|--------------|

Chorus:(Guitar1 & Guitar2)

d|--------------------------|-------------------------|
a|--------------------------|-------------------------|
F|--------------------------|-------------------------|
C|--------------------------|-------------------------|
G|----6--6---6---6---6------|----6--6---6---6---6-----|
D|--------------------------|-------------------------|
A|-3---3---3---3---3---3///7|-3---3---3---3---3---3h4-|

Verse:

d|--------------|
a|--------------|
F|--0--0---0--0-|
C|-6--6---6--6--|	(Guitar1 with some kind of effect)
G|--------------|
D|--------------|
A|--------------|

Chorus:(Guitar1 & Guitar2)

d|--------------------------|-------------------------|
a|--------------------------|-------------------------|
F|--------------------------|-------------------------|
C|--------------------------|-------------------------|
G|----6--6---6---6---6------|----6--6---6---6---6-----|
D|--------------------------|-------------------------|
A|-3---3---3---3---3---3///7|-3---3---3---3---3---3h4-|

Verse:

d|--------------|
a|--------------|
F|--0--0---0--0-|
C|-6--6---6--6--|	(Guitar1 with some kind of effect)
G|--------------|
D|--------------|
A|--------------|

Chorus:(Guitar1 & Guitar2)

d|--------------------------|-------------------------|
a|--------------------------|-------------------------|
F|--------------------------|-------------------------|
C|--------------------------|-------------------------|
G|----6--6---6---6---6------|----6--6---6---6---6-----|
D|--------------------------|-------------------------|
A|-3---3---3---3---3---3///7|-3---3---3---3---3---3h4-|

Fill1:(Guitar1 & Guitar2)
[ Tab from: http://www.guitartabs.cc/tabs/k/korn/beg_for_me_tab_ver_6.html ]
d|--------------------------|-------------------------|
a|--------------------------|-------------------------|
F|--------------------------|-------------------------|
C|--------------------------|-------------------------|
G|----6--6---6---6---6------|----6--6---6---6---6-----|
D|--------------------------|-------------------------|
A|-3---3---3---3---3---3///7|-3---3---3---3---3---3---|

Bridge:(Guitar1 & Guitar2)
		  1X
d|-----------------|-------------------|
a|-----------------|-------------------|
F|-----------------|-------------------|
C|-----4-2-----5-2-|-------4-2-----5-2-|
G|-2---4-2-5---5-2-|-2/3---4-2-5---5-2-|
D|-2---2-0-5---3-0-|-2/3---2-0-5---3-0-|
A|-0-------3-------|-0-0-------3-------|

Verse:

d|--------------|
a|--------------|
F|--0--0---0--0-|
C|-6--6---6--6--|	(Guitar1 with some kind of effect)
G|--------------|
D|--------------|
A|--------------|

Chorus:(Guitar1 & Guitar2)

d|--------------------------|-------------------------|
a|--------------------------|-------------------------|
F|--------------------------|-------------------------|
C|--------------------------|-------------------------|
G|----6--6---6---6---6------|----6--6---6---6---6-----|
D|--------------------------|-------------------------|
A|-3---3---3---3---3---3///7|-3---3---3---3---3---3h4-|

Fill1:(Guitar1 & Guitar2)

d|--------------------------|-------------------------|
a|--------------------------|-------------------------|
F|--------------------------|-------------------------|
C|--------------------------|-------------------------|
G|----6--6---6---6---6------|----6--6---6---6---6-----|
D|--------------------------|-------------------------|
A|-3---3---3---3---3---3///7|-3---3---3---3---3---3---|

Outro:(Guitar1)

d|------------15--------------18----|
a|---------16--------------16-------|
F|------17--------------17----------|
C|--x---------------x---------------|
G|--3---------------3---------------|
D|--3---------------3---------------|
A|--1---------------1---------------|
Comments