Korn - Beg For Me Chords & Tabs

 

Beg For Me Chords & Tabs

Korn Chords & Tabs

Version: 2 Type: Tab 0 ratings
1 star 2 stars 3 stars 4 stars 5 stars
comments

Beg For Me Tab

   
Artist: John leadman
Song: Beg For Me 
Tabbed by: John Leadman





PART A:
e ||----------------------------------------------
B ||----------------------------------------------
G ||------4------------4---------4----------------   PLAY 8 TIMES
D ||------4------------4---------4----------------
A ||-2---2----2---2---2---2----2------------------
E ||-0--------0---0--------0--------0-2-3---------


PART B:
e ||----------------------------------
B ||----------------------------------
G ||----------------------------------   PLAY 8 TIMES
D ||----------------------------------
A ||--4-------4-------4------4--------
E ||-----2--------2------2------2-----



PART C:
e ||------------------------------------------
B ||------------------------------------------
G ||----------4-----2-----------5---2---------  PLAY 4 TIMES
D ||----------4-----2-----5----5----2---------
A ||---2------2-----0----5-----3----0---------
E ||---0------------------3-------------------

PART B- PLAY 2 TIMES

PART A- PLAY 16 TIMES


[ Tab from: http://www.guitartabs.cc/tabs/k/korn/beg_for_me_tab_ver_2.html ]
PART D:
e ||---------0----------0---------0---------0----
B ||---------5----------5---------5---------5----
G ||---------3----------3---------3---------3----  PLAY 2 TIMES
D ||----2----------2---------2--------2----------
A ||----2----------2---------2--------2----------
E ||----0----------0---------0--------0----------




Another version of the song:


Tuned Down One Half Whole Step (DGCFAd)

(Intro Pt 1 and Verse)

d ||----------------------------------------|
A ||----------------------------------------|
F ||----------------------------------------|
C ||-1--0--1--0--1--0--1--0--0--1--0--4-----|
G ||----------------------------------------|
D ||----------------------------------------|

(With Flanger Effect)

(Intro Pt 2 and Chorus)

(Guitars 1 and 2)
d ||----------------------------|
A ||----------------------------|
F ||--8/7/8--7--8/7/8--11-------|
C ||--8/7/8--7--8/7/8--11-------|
G ||--6/5/6--5--6/5/6---9-------|
D ||----------------------------|
(note: / = Hammer on)

(With heavy Distortion)

(Bridge: The Part when Jon Goes..."I feel the shame...")

d ||----------------||----------------|
A ||----------------||----------------|
F ||-5--8--8--8--7--||-12--10--8--5---|
C ||-5--8--8--8--7--||-12--10--8--5---|
G ||-3--6--6--6--5--||-10---8--6--3---|
D ||----------------||----------------|

(With Heavy Distortion)

(Outro: Where Jon Sings..."Be there, for me")

d ||----7-----11--|
A ||----7-----11--|
F ||-5--7--5--11--|
C ||-5-----5------|
G ||-3-----3------|
D ||--------------|

Comments