Korn - Beg For Me Chords & Tabs

 

Beg For Me Chords & Tabs

Korn Chords & Tabs

Version: 1 Type: Bass Tab 0 ratings
1 star 2 stars 3 stars 4 stars 5 stars
comments

Beg For Me Bass Tab

   
artist: korn
song: beg for me
album: issues
transcribed by: ryan
e-mail: ryencoke45@hotmail.com
tuning: drop A, low to high (A,E,A,D)

intro
D|-----10/11\10--------------------|
A|--------------10/11\10-----------|
E|-8-8-------------------9\8/9-9-9-| X3
A|---------------------------------|

end-intro
D|-----10/11\10-|
A|--------------|
E|-8-8----------| X1
A|--------------|
[ Tab from: http://www.guitartabs.cc/tabs/k/korn/beg_for_me_btab.html ]
chorus
   S S S S S S  S S S S S S  S S S S S S  S S S S S S
D|----------------------------------------------------|
A|----------------------------------------------------|
E|----------------------------------------------------| X4
A|-2-3-2-3-2-3--2-3-2-3-2/7--2-3-2-3-2-3--2-3-2-3-2/4-|

verse
D|-----10/11\10-------|
A|--------------10/11-|
E|-8-8----------------| X7
A|--------------------|

end-verse
D|-----|
A|-----|
E|-8-8-| X1
A|-----|

chorus X4

verse X7

end-verse X1

chorus X4

bridge
   S  S  S    S  S  S S
D|----------------------|
A|----------------------|
E|----------------------| X4
A|-0--4--3----2--8--1-2-|

intro X9

chorus X6

end
   S   S
D|-------|
A|-------|
E|-------| X4
A|-1---0-|
Comments