Korn - Bbk Chords & Tabs

 

Bbk Chords & Tabs

Korn Chords & Tabs

Version: 3 Type: Tab 0 ratings
1 star 2 stars 3 stars 4 stars 5 stars
comments

Bbk Tab

intro before it gets real hardcore this goes like 3 or 4 times listen to it and
you'll know and i dont know how many times exactly each one is hit but you should
know when it goes up to 4
d|--------------|--------------|--------------|-------------------| 
a|--------------|--------------|--------------|-------------------| 
F|----33333333333444444--------|--------------|-------------------|
C|--------------|--------------|--------------|-------------------| 
G|--------------|--------------|--------------|-------------------| 
D|--------------|--------------|--------------|-------------------| 
A|--------------|--------------|--------------|-------------------| 

i think they use a whammy pedal on both parts right above and right below this
but i think it sounds just fine with some distortion but thats just me 


i dont know is thats the right amount of times 3 and 6 are hit but you'll know
when it slides to 15 and 18

this is munkys part while jon is singing you the verses and its repeated until it
goes to the chorus                                      
d|-----------17-|--------------|--------------|-------------------|
a|----17-----14-|--------------|--------------|-------------------|
F|----16--------|--------------|--------------|-------------------| 
C|--------------|--------------|--------------|-------------------| 
G|--------------|--------------|--------------|-------------------| 
D|--------------|--------------|--------------|-------------------| 
A|--------------|--------------|--------------|-------------------| 

[ Tab from: http://www.guitartabs.cc/tabs/k/korn/bbk_tab_ver_3.html ]
i dont have the chorus yet but this is the part where its real heavy before all
the giberish this might be the rythm chorus part too im not sure 
d|--------------|--------------|--------------|-------------------| 
a|--------------|--------------|--------------|-------------------| 
F|--------------|--------------|--------------|-------------------| 
C|--------------|--------------|--------------|-------------------| 
G|--------------|--------------|--------------|-------------------| 
D|-----1--------|1----------1--|-------1------|-------------------| 
A|-0-0---0--0-0-0---0--0-0-0---0--0-0-0-------|-------------------| 

then it goes back to
d|---666666666/18-19-----------|--------------|-------------------|
a|---xxxxxxxxx/x--x------------|--------------|-------------------|
F|---333333333/15-16-----------|--------------|-------------------|
C|--------------|--------------|--------------|-------------------| 
G|--------------|--------------|--------------|-------------------| 
D|--------------|--------------|--------------|-------------------| 
A|--------------|-----0--------|--------------|-------------------| 

but when he goes back to the chorus it changes and i havnt gotten that yet either
the octaves are a pain in the ass at first but you'll get them and if you want to
use the whammy pedal good luck cuz it looks like a pain in the ass to do all that
and lift your foot off when the hit the A string open then go back to the pedal i
dont know

any questions comments etc email me at chris785x@comcast.net or my screen name is maggot278
Comments