Korn - Bbk Chords & Tabs

 

Bbk Chords & Tabs

Korn Chords & Tabs

Version: 1 Type: Tab 0 ratings
1 star 2 stars 3 stars 4 stars 5 stars
comments

Bbk Tab

korn-bbk
tuned down 1 half step
the guitars use a wah wah pedal but it sounds kinda right w/out one


  intro- use wah wah pedal
  -----------------------------
  -----------------------------
  -----------------------------
  --7777777777778888888888-----    x4
  -----------------------------
  -----------------------------
  
  
  -(5555555555556666666666)---------------------------------
  ----------------------------------------------------------
  ----------------------------------------------------------
  --7777777777778888888888--8-8-----------------------------    x8
  --------------------------6-6-----------------------------
  ----------------------------------------------------------
[ Tab from: http://www.guitartabs.cc/tabs/k/korn/bbk_tab.html ]
                     x16		     x6
  ----------------------------------------------------------
  ----------------------------------------------------------
  -----------------------------------------8-6------8/10----
  -------------(------9---10---)---------8-------8----------
  -------8--7--(--8---7----8---)----------------------------
  -------------(--6------------)----------------------------
	
	x10
  ----------------------------------------------------------
  ----------------------------------------------------------                                                                                                                                                                                                                                                                                                                                                                                                                                                                                                                                                                                                                                                                                                                                                                                                                                                  
  ------------------10--------------------------------------
  ------8-8-8-8------8--8-----------------------------------
  ------6-6-6-6---------6-----------------------------------
  ----------------------------------------------------------


  --------------------
  --------------------
  --------------------
  --------------------repeat a few times
  ----8--8----7--7----
  ----6--6----5--5----


  thats the song that my guitar teacher tabbed out for me so dont be mad if its a little off
  e-mail me if you can improve it @ korno4321@hotmail.com
Comments