Korn - Ball Tongue Chords & Tabs

 

Ball Tongue Chords & Tabs

Korn Chords & Tabs

Version: 4 Type: Tab 0 ratings
1 star 2 stars 3 stars 4 stars 5 stars
comments

Ball Tongue Tab

   
SONG: Ball Tongue
BAND: KoRn
ALBUM: self titled(1994)
TRANSCRIBER: Ashley MacDonald

Well here we are again. I just couldnt find a good, accurate tab for this song, this 
FRIGGIN AWESOME SONG. Some of the following riffs have pretty fast chord changes, a 
resonable guitarist can pull it off by themselves. Some parts require 2 guitars anyway. 
So... here we go...
   again....

Played on 7-string, tuned down one whole step.

KEY
 /   slide
 *   palm damp
 b   bend
 r   release

INTRO both gtrs~ distortion
d|--------------------------------------------
A|--------------------------------------------
F|--------------------------------------------
C|------7/6-------10-9------------------------  X4
G|--7/8-7/6-7/8---10-9------------------------
D|--7/8-5/4-7/8---8--7------------------------
A|--5/6-----5/6-------------------------------

FILL 1 both gtrs~ distortion
d|--------------------------------------------
A|--------------------------------------------
F|--------------------------------------------
C|--10-------9------10----------7-------------  X1
G|--10-------9------10----------7-------------
D|--8--------7------8-----------5-------------
A|-----0-0-0-----------0--0--0----------------
       * * *           *  *  *

RIFF 1 both gtrs~ distortion
d|--------------------------------------------
A|--------------------------------------------
F|--------------------------------------------
C|------7/6-----7/6---------------------------  X3
G|--7/8-7/6-7/8-7/6-7/8-----------------------
D|--7/8-5/4-7/8-5/4-7/8-----------------------
A|--5/6-----5/6-----5/6-----------------------

RIFF 2 both gtrs~ distortion
d|--------------------------------------------
A|--------------------------------------------
F|--------------------------------------------
C|------7/6------10-----7---------------------  X1
G|--7/8-7/6-7/8--10-----7---------------------
D|--7/8-5/4-7/8--8------5---------------------
A|--5/6-----5/6-----0-0-----------------------
                    * *
PLAY RIFF 1  X3
PLAY RIFF 2  X1

FILL 2 gtr 1~ wah, pitch
d|----18----------20--------------------------
A|-------------18-----------------------------
F|--------------------------------------------
C|--------------------------------------------  X1
G|--------------------------------------------
D|--------------------------------------------
A|--------------------------------------------

FILL 3 both gtrs~ distortion, wah
d|---b18----r18-------------------------------gtr 1
A|----------r21-------------------------------gtr 2
F|--------------------------------------------
C|--------------------------------------------  X8
G|--------------------------------------------
D|--------------------------------------------
A|--------------------------------------------
[ Tab from: http://www.guitartabs.cc/tabs/k/korn/ball_tongue_tab_ver_4.html ]
RIFF 3 gtr 1~ distortion
d|--------------------------------------------
A|--------------------------------------------
F|--------------------------------------------
C|--------------------------------------------  X4
G|--2-2--2--2--2-2-3--------------------------
D|--2-2--2--2--2-2-3--------------------------
A|--0-0--0--0--0-0-1--------------------------

RIFF 3 gtr 2~ distortion >continuous strumming
d|--------------------------------------------
A|--------------------------------------------
F|--8----6---------6--------------------------
C|------------7-----------9-------------------  X1
G|--6----4---------4--------------------------
D|------------5-----------7-------------------
A|--------------------------------------------

PLAY FILL 3  X8
PLAY gtr1's RIFF 3 X8 with gtr2's RIFF3 X2

FILL 4 both gtrs~ distorion, wah >volume swells
d|---10--------------------------------------gtr 1
A|-------9-----------------------------------gtr 2
F|-------------------------------------------
C|-------------------------------------------  X1
G|-------------------------------------------
D|-------------------------------------------
A|-------------------------------------------

PLAY RIFF 1  X3
PLAY RIFF 2  X1
PLAY RIFF 1  X3
PLAY RIFF 2  X1

FILL 5 both gtrs~ slight overdrive
d|---b16---------------b16-------------------gtr 1
A|--------15h16-15h16------------------------gtr 2
F|-------------------------------------------
C|-------------------------------------------  X4
G|-------------------------------------------
D|-------------------------------------------
A|-------------------------------------------

FILL 6 both gtrs~ distortion
d|-------------------------------------------
A|-------------------------------------------
F|-------------------------------------------
C|-------------------------------------------  X1
G|-------------------------------------------
D|-------------------------------------------
A|----0--LET-RING----------------------------
      *

PLAY RIFF 1  X3
PLAY RIFF 2  X1
PLAY RIFF 1  X3
PLAY RIFF 2  X1

RIFF 4 gtr 2~ distortion, low volume >continuos picking
d|-------------------------------------------
A|-------------------------------------------
F|-------------------------------------------
C|-------------------------------------------  X2
G|--6----4---------4-------------------------
D|------------5-----------7------------------
A|-------------------------------------------

PLAY gtr1's RIFF 3 X8 with gtr2's RIFF3 X2
PLAY gtr1's RIFF 3 X4
PLAY gtr1's RIFF 3 X8 with gtr2's RIFF3 X2
PLAY gtr1's RIFF 3 X4
PLAY gtr1's RIFF 3 with gtr2's RIFF 4 TILL FADE OUT


    FINISHED.... well it turned out pretty good.
                 it took me a while and i think 
                 this tab is pretty accurate.
                 damn better those other ones out there!
                    CYA ON MY NEXT TAB.


                  ~BY ASHLEY MACDONALD~
Comments