Korn - Alone I Break Chords & Tabs

 

Alone I Break Chords & Tabs

Korn Chords & Tabs

Version: 3 Type: Tab 0 ratings
1 star 2 stars 3 stars 4 stars 5 stars
comments

Alone I Break Tab

   
Author/Artist: Korn	
Title: Alone I break
Transcribed by: Vladimir Belmont 
Email: urban_chaos54@hotmail.com

Drop-G# (G#, C#, F#, B, E, G#, C#)
**Well I think this a 100% correct**

 Munky Guitar 1
C#||------------------------------|------------------------------|
G#||------------------------------|------------------------------|
E ||------------------------------|------------------------------|
B ||------------------------------|------------------------------|
F#||-------7-7-------7-7------8-8-|----7--7-7-------7-7------8-8-|
C#||------------------------------|------------------------------|
G#||--0-0-------0-0-------0-0-----|--0---------0-0-------0-0-----|
[ Tab from: http://www.guitartabs.cc/tabs/k/korn/alone_i_break_tab_ver_3.html ]
  
Head Guitar 2                                                    
C#||--------------------|
G#||-------0------------|
E ||--------------------|
B ||--------------------|
F#||--5-----------------|
C#||--------------------|
G#||--------------------|

                                                                 
---------------------|--------------------|---------------------|
---------------------|-------0------------|---------------------|
-------5-------------|--------------------|-------5-------------|
---------------------|--------------------|---------------------|
--3-------------0----|--5-----------------|--3-------------0----|
---------------------|--------------------|---------------------|
---------------------|--------------------|---------------------|

Esta Tab se la dedico a Mi amada Elena Te amo
Comments