Korn - Alone I Break Chords & Tabs

 

Alone I Break Chords & Tabs

Korn Chords & Tabs

Version: 3 Type: Bass Tab 0 ratings
1 star 2 stars 3 stars 4 stars 5 stars
comments

Alone I Break Bass Tab

   
-----------------------------------------------------------------------------
	                   ALONE I BREAK - KoRn
-----------------------------------------------------------------------------

Tabbed By : KoRnKid89
e-mail: XblytheX89@aol.com

Tuning: ADGCF

*The numbers 10 and 11 are double digits and do not stand for open notes and first fret plays.

Intro/Verse: No bass.

[ Tab from: http://www.guitartabs.cc/tabs/k/korn/alone_i_break_btab_ver_3.html ]
  Pre-Chorus:
                    "These feelings..."                "These feelings..."
F|-----------------|----------------|-----------------|--------------------|
C|-----------------|----------------|-----------------|--------------------|
G|--------13-------|-------11-------|--------13-------|-------11--------9--|
D|-----12----------|----10----------|-----12----------|----10---------8----|
A|--11-------------|--9--------(9)--|--11-------------|--9----------7------|


  Chorus:
F|-------------------------|------------------------|
C|-------------------------|------------------------|
G|-------------------------|------------------------|
D|--6----6-6-6-6--6-6-6-6--|--9----9-9-9-9--9-9-9-9-|
A|-------------------------|------------------------|

F|-------------------------|-------------------------|
C|-------------------------|-------------------------|
G|-------------------------|-------------------------|
D|-------------------------|-------------------------|
A|--9----9-9-9-9--9-9-9-9--|--7----7-7-7-6--6-6-6-5--|
  
  (x2)


Bridge: No bass.  

| /  slide up
| \  slide down
| h  hammer-on
| p  pull-off
| ~  vibrato
| +  harmonic
| x  Mute note
=============================================================================
Comments