Korn - Alone I Break Chords & Tabs

 

Alone I Break Chords & Tabs

Korn Chords & Tabs

Version: 2 Type: Bass Tab 0 ratings
1 star 2 stars 3 stars 4 stars 5 stars
comments

Alone I Break Bass Tab

***********************
*Korn - Alone i Break**
***********************
Tabbed By : Faction
Tuning: Standart


0:00 - 0:42
Palm Mute (try using the mediator for true sound) (Listen for timing)
G|--------------------------------------------------------|
D|--------------------------------------------------------|
A|--------------------------------------------------------|
E|-0-0--16-16--0-0--16-16--0-0-17-17----------------------|

0:54 - 1:18 (Listen for timing)
G|--------------------------------------------------------|
D|--------------------------------------------------------|
A|--------------4-4-4-4-4-4-------------------------------|
E|--4-4-4-4-4-4------------2-2-2-2-2-2--0-0-0-0-0-0-------|

1:18 - 1:54
Palm Mute (try using the mediator for true sound) (Listen for timing)
G|--------------------------------------------------------|
D|--------------------------------------------------------|
A|--------------------------------------------------------|
E|-0-0--16-16--0-0--16-16--0-0-17-17----------------------|
[ Tab from: http://www.guitartabs.cc/tabs/k/korn/alone_i_break_btab_ver_2.html ]
2:06 - 2:29 (Listen for timing)
G|--------------------------------------------------------|
D|--------------------------------------------------------|
A|--------------4-4-4-4-4-4-------------------------------|
E|--4-4-4-4-4-4------------2-2-2-2-2-2--0-0-0-0-0-0-------|

2:30 - 3:17 (Listen for timing)
G|--------------------------------------------------------|
D|--------------------------------------------------------|
A|--------4*----------------------------------------------|
E|--4*---------2*-----0*----------------------------------|

* - Let sound


3:17 - 3:23
Palm Mute (try using the mediator for true sound) (Listen for timing)
G|--------------------------------------------------------|
D|--------------------------------------------------------|
A|--------------------------------------------------------|
E|-0-0--16-16--0-0--16-16--0-0-17-17----------------------|

3:24 - 4:12 (Listen for timing)
G|--------------------------------------------------------|
D|--------------------------------------------------------|
A|--------------4-4-4-4-4-4-------------------------------|
E|--4-4-4-4-4-4------------2-2-2-2-2-2--0-0-0-0-0-0-------|
Comments