Korn - Alive Chords & Tabs

 

Alive Chords & Tabs

Korn Chords & Tabs

Version: 4 Type: Tab 0 ratings
1 star 2 stars 3 stars 4 stars 5 stars
comments

Alive Tab

Band- Korn
Album- Take A Look In The Mirror
Song- Alive
Tuning- Standard Tuning(May be even drop tuned 1/2 step)

This is the best song off TALITM.ENJOY!!!

d------------------------------------------|
a------------------------------------------|
F------------------------------------------|
C------------------------------------------|
G------------------------------------------|
D--4-5-5--4-5-5--4-5-5--7-5-4-5------------|
A--2-3-3--2-3-3--2-3-3--5-3-2-3------------|
Intro Git.1

d-------------------|-----------------------|
a-------------------|-----------------------|
F--7-----10---6-----|--7-----10---6---------|
C-------------------|-----------------6-----|
G--5------8---4-----|--5------8---4---------|
D-------------------|-----------------4-----|
A-------------------|-----------------------|
Intro Git.2 tremolo pick
[ Tab from: http://www.guitartabs.cc/tabs/k/korn/alive_tab_ver_4.html ]
d-------------------------------------------|
a-------------------------------------------|
F-------------------------------------------|
C-------------------------------------------|
G-------------------------------------------|
D--4/5-----4/5-----7-5-4-5---4/5--(4-7-4-5)-|
A--2/3-----2/3-----5-3-2-3---2/3--(2-5-2-3)-|
Verse (not sure)

d------------------------------------------|
a------------------------------------------|
F------------------------------------------|
C-2-------------5---4-----3----------------|
G-2-----2---3---5---4-----3----------------|
D-0-----2---3---3---2-----1----------------|
A-------0---1------------------------------|
Chorus


d------------------------------------------|
a------------------------------------------|
F------------------------------------------|
C------------------------------------------|
G------4--3--4--5--4-------4--3--4--5--4---|
D------------------------------------------|
A--2-------------------2-------------------|
bridge (palm muted)
Comments