Korn - Alive Bass Tabs Chords & Tabs

 

Alive Bass Tabs Chords & Tabs

Korn Chords & Tabs

Version: 1 Type: Bass Tab 0 ratings
1 star 2 stars 3 stars 4 stars 5 stars
comments

Alive Bass Tabs Bass Tab

                                 Korn - Alive                                   


Fieldy



intro                                                                   
F||-------------------------------|-------------------------------|
C||-------------------------------|-------------------------------|
G||-------------------------------|-------------------------------|
D||-------------------------------|-------------------------------|
A||--0--x-x-0--x-x-0--x-x-0-x-0-0-|--0--x-x-0--x-x-0--x-x-0-x-x-0-|




and guitar starts
                                                              
------------------------------|------------------------------|
------------------------------|------------------------------|
------------------------------|------------------------------|
------------------------------|------------------------------|
--1--x-x-1--x-x-1--x-x-0--0-0-|--1--x-x-1--x-x-1--x-x-0--0-0-|



verse                                                        
---------------------------|---------------------------|
---------------------------|---------------------------|
---------------------------|---------------------------|
---------------------------|---------------------------|
--2-2-x-----2-2-x--1-1-1-0-|--2-2-x-----2-2-x--1-1-1-0-|


                                                        
after verse                                                               
|----------------------|
|----------------------|
|----------------------|
|----------------------|
|--1--2------0--1------|

[ Tab from: http://www.guitartabs.cc/tabs/k/korn/alive_bass_tabs_btab.html ]
 Pre-Chorus                                                                
------------------------------|------------------------------|
------------------------------|------------------------------|
------------------------------|------------------------------|
------------------------------|------------------------------|
--1--x-x-1--x-x-1--x-x-0--0-0-|--1--x-x-1--x-x-1--x-x-0--0-0-|



Chorus                                                                
--------------------|--------------------|---------------------|
--------------------|--------------------|---------------------|
--------------------|--------------------|---------------------|
--0-----------------|---------------2----|--3--------------x-x-|
-----------------x--|--0-----------------|---------------------|


                                                              
-------------------|
-------------------|
-------------------|
--1----------------|
-------------------|





 bridge (not slapped)                                                                               
-------------------|-------------------|-------------------|-------------------|
-------------------|-------------------|-------------------|-------------------|
-------------------|-------------------|-------------------|-------------------|
-------------------|-------------------|-------------------|-------------------|
--0----------------|--0----------------|--0----------------|--0----------------|......


                 and outro                                       
|----------------------------------||
|----------------------------------||
|----------------------------------||
|----------------------------------||
|--2-2-2-2-3-2-2-2-2-2-2-2-3-2-2-2-||
Comments