Korn - Adidas Chords & Tabs

 

Adidas Chords & Tabs

Korn Chords & Tabs

Version: 7 Type: Tab 0 ratings
1 star 2 stars 3 stars 4 stars 5 stars
comments

Adidas Tab

   
20.05.04


Autor:     Sebastian Krueger

Band:      KoRn

Song:      A.D.I.D.A.S.

Album:  Life Is Peachy (1996)

I know, its wrong, but it sounds good, too. And Its my first tab, so get easy on me.

You play it with seven strings. And you need 2 guitars.
Its all in heavy distortion exept the bridge.
But in heavy distortion the bridge is also the chorus on guitar 2.
Its a great song and in the way I play it, its easy to play too.

If some of you know how to play it 100% correct, tab it and send it to
www.ultimate-guitar.com or www.mxtabs.net  or another site like that.
It just helps other guitarplayers to play songs by the greatest band in the
world.

Intro/Vers:

D|-----------------------------------------------------------------|
A|--0----0----0----0----0----0-------0---0----0---0---0------0-----|
F|--3----3^---3----3----3^---3-------3---3^---3---3---3------3^----|
C|-----------------------------------------------------------------|
G|-----------------------------------------------------------------|
D|-----------------------------------------------------------------|
A|------------------------------------------------------0----------|


Pre-Chorus:

D|-----------------------------------------------------------------|
A|-----------------------------------------------------------------|
F|-----------------------------------------------------------------|
C|-----------------------------------------------------------------|
G|--9-3/5--------(3-2-32)--------------------------------------|
D|--9-3/5--------(3-2-32)--------------------------------------|
A|--7-1/3--------(1-0-10)--------------------------------------|


Chorus Gt. 1:
[ Tab from: http://www.guitartabs.cc/tabs/k/korn/adidas_tab_ver_7.html ]
D|----------------------------0------------------------------------|
A|----------------------------0------------------------------------|
F|-----9--8-----8--9-----9----0------------------------------------|
C|-----x--x-----x--x-----x-----------------------------------------|
G|-----7--6-----6--7----11-----------------------------------------|
D|-----------------------------------------------------------------|
A|--0--------0-----------------------------------------------------|


Chorus/Bridge Gt. 2:

D|-----------------------------------------------------------------|
A|-----------------------------------------------------------------|
F|-------9--8-------^8-------9-------(9--^11)----------------------|
C|-----------------------------------------------------------------|
G|------------------------------9----------------------------------|
D|--7----------7--------8------------------------------------------|
A|-----------------------------------------------------------------|


Breakdown:

D|----------------------------------------------------------------|
A|--0------------------0------------------------------------------|
F|--3------------------3------------------------------------------|
C|----------------------------------------------------------------|
G|-----3--2---3--2-------3--2----3----6\5/6\5\4------------------|
D|-----3--2---3--2-------3--2----3----6\5/6\5\4------------------|
A|-----1--0---1--0-------1--0----1----4\3/4\3\2------------------|


Intro Gt. 1          1x
Intro Gt. 1+2        1x
Intro/Vers Gt. 1+2   4x
Pre-Chorus Gt. 1+2   2x
Intro/Vers Gt. 1+2   4x
Pre-Chorus Gt. 1+2   2x
Chorus Both          4x
Bridge Gt. 2         4x
Breakdown Gt.  1+2   4x
Chorus Both          8x
Comments