Korn - Adidas Chords & Tabs

 

Adidas Chords & Tabs

Korn Chords & Tabs

Version: 10 Type: Tab 0 ratings
1 star 2 stars 3 stars 4 stars 5 stars
comments

Adidas Tab

   
-------------------------------------------------------------------------------
			A.D.I.D.A.S. - KoRn
-------------------------------------------------------------------------------
Tabbed by:Eduardo lan
Email:eduardolan_12@hotmail.com

INTRO:
e|------------------------|
B|------------------------|
G|-^2-^2--------^2-^2--2--|
D|--------------------2---|
A|------------------------|
E|------------------------|x5
VERSE:         
e|--------------------------------------|
B|--------------------------------------|
G|--------------------------------------|
D|-5-7-3-----1-0-1-0--------5-7-3-------|
A|-5-7-3-----1-0-1-0--------5-7-3-------|
E|-5-7-3-----1-0-1-0--------5-7-3-------|

e|------------------------|
B|------------------------|
G|-^2-^2--------^2-^2--2--|
D|--------------------2---|
A|------------------------|
E|------------------------|x5
[ Tab from: http://www.guitartabs.cc/tabs/k/korn/adidas_tab_ver_10.html ]
e|----------------------|
B|----------------------|
G|----------------------|
D|-5-7-3-----1-0-1-0----|
A|-5-7-3-----1-0-1-0----|
E|-5-7-3-----1-0-1-0----|X2
CHORUS:
HEAD
e|-----------------------------------|
B|-----------------------------------|
G|-----------------------------------|
D|-4-------------5-------------------|
A|-4-------------5-------------------|
E|-----------------------------------|
MUNKY
e|-----------------------------------|
B|-----------------------------------|
G|---7-6-6/7\6------7-9-7-9/10\9-----|
D|-----------------------------------|
A|-----------------------------------|
E|-----------------------------------|

HEAD
            ALL DAY I DREAM ABOUT FUKEN
e|------------------------------------|
B|------------------------------------|
G|--------------------------------------2^-|
D|------------------------------------|
A|-0------------1---------------------|
E|------------------------------------|
MUNKY
e|-----------------------------------|
B|-----------------------------------|
G|---7-6-6/7\6------7-9-7-9/10\9-----|
D|-----------------------------------|
A|-----------------------------------|
E|-----------------------------------|
MUNKEY AND HEAD
e|--------------------------------------------------------|
G|-------------2^------------------------2^---------------|
D|-7-7-7-7-7-7---5-5-5-5-5-7-7-7-3-3-3-3-3--2-2-2-2-2-2-2-|
A|-7-7-7-7-7-7---5-5-5-5-5-7-7-7-3-3-3-3-3--2-2-2-2-2-2-2-|
E|-7-7-7-7-7-7---5-5-5-5-5-7-7-7-3-3-3-3-3--2-2-2-2-2-2-2-|X2

CHORUS
HEAD
e|-----------------------------------|
B|-----------------------------------|
G|-----------------------------------|
D|-4-------------5-------------------|
A|-4-------------5-------------------|
E|-----------------------------------|
MUNKY
e|-----------------------------------|
B|-----------------------------------|
G|---7-6-6/7\6------7-9-7-9/10\9-----|
D|-----------------------------------|
A|-----------------------------------|
E|-----------------------------------|

| /  slide up
| \  slide down
| ^  bend
===============================================================================
Comments