Kool And The Gang - Ladies Night Chords & Tabs

 

Ladies Night Chords & Tabs

Kool And The Gang Chords & Tabs

Version: 1 Type: Bass Tab 0 ratings
1 star 2 stars 3 stars 4 stars 5 stars
comments

Ladies Night Bass Tab

Song: Ladies Night
Band: Kool and the Gang
Album:???
Tabbed by: Rob MacGuffie (subDubLBC@aol.com)
Tuning: Standard


Main Part
[ Tab from: http://www.guitartabs.cc/tabs/k/kool_and_the_gang/ladies_night_btab.html ]
 |-----------0-----------------|
 |----1--3--------------1-1-3--|
 |-3----------1---3-3----------|
 |-----------------------------|

Part Played near the end
 |---------------------------------------|
 |---------------------------------------|
 |--------------------------4-6---6-4----|
 |-4-4--2-4-4--5----6----------------6-5-|

Comments