Kookshow - Told You So Chords & Tabs

 

Told You So Chords & Tabs

Kookshow Chords & Tabs

Version: 1 Type: Tab 0 ratings
1 star 2 stars 3 stars 4 stars 5 stars
comments

Told You So Tab

Artist:KookShow
Song:Told You So
Album:Let The Show Begin



Intro
|-----------------------------------------
|---------------------------------4-3-----
|-5-5-5-5-5-5p3h5-5-5-5-5-5-5p3h5-----5-3-play a few times
|-----------------------------------------
|-----------------------------------------
|-----------------------------------------
pm_________|      pm_______|              


[ Tab from: http://www.guitartabs.cc/tabs/k/kookshow/told_you_so_tab.html ]
Verse
|-----------------------------------------------------------------
|-----------------------------------------------------------------
|-5-5-5-5-5-5-5-5-------------------------------------------------
|-5-5-5-5-5-5-5-5-3-3-3-3-3-3-3-3-7-7-7-7-7-7-7-7-5-5-5-5-5-5-5-5-
|-3-3-3-3-3-3-3-3-3-3-3-3-3-3-3-3-7-7-7-7-7-7-7-7-5-5-5-5-5-5-5-5-
|-----------------1-1-1-1-1-1-1-1-5-5-5-5-5-5-5-5-3-3-3-3-3-3-3-3-



Chorus?
Comments