Kookshow - Sexy Chords & Tabs

 

Sexy Chords & Tabs

Kookshow Chords & Tabs

Version: 1 Type: Tab 0 ratings
1 star 2 stars 3 stars 4 stars 5 stars
comments

Sexy Tab

Artist:KookShow
Song:Sexy
Album:Let The Show Begin

Tuning:DADGBE

Intro
|-------------------------------------------
|-------------------------------------------
|-------------------------------------------
|-2-2-2-2-0-2-2-2-2-0-2-2-2-2-0-5-5-7-7-5-7-
|-2-2-2-2-0-2-2-2-2-0-2-2-2-2-0-5-5-7-7-5-7-
|-2-2-2-2-0-2-2-2-2-0-2-2-2-2-0-5-5-7-7-5-7-


Verse with phaser
|-------------------------------------------
|-------------------------------------------
|-------------------------------------------
|-------------------------------------------
|-2-2-2-2-0-2-2-2-2-0-2-2-2-2-0-5-5-7-7-5-7-
|-2-2-2-2-0-2-2-2-2-0-2-2-2-2-0-5-5-7-7-5-7-



Chorus
|-------------------------------------------
|-------------------------------------------
|-------------------------------------------
|-2-2-2-2-0-2-2-2-2-0-2-2-2-2-0-5-5-7-7-5-7-
|-2-2-2-2-0-2-2-2-2-0-2-2-2-2-0-5-5-7-7-5-7-
|-2-2-2-2-0-2-2-2-2-0-2-2-2-2-0-5-5-7-7-5-7-

[ Tab from: http://www.guitartabs.cc/tabs/k/kookshow/sexy_tab.html ]
Chorus part 2 with whammy set at 2 octaves on specified notes(w)
|------------------------------------------------------------------------------------------------
|------------------------------------------------------------------------------------------------
|-----------------9-9-9-9-9-9-9----------------------------------9-9-9-9-9-9-9-9-----------------
|-----------------9-9-9-9-9-9-9-9-9-9-9-9-9-9-9------------------9-9-9-9-9-9-9-9-5-5-5-5-5-5-5-5-
|-----7-----7-----7-7-7-7-7-7-7-9-9-9-9-9-9-9-9-----7-----7------7-7-7-7-7-7-7-7-5-5-5-5-5-5-5-5-
|-0-0---0-0---0-0---------------9-9-9-9-9-9-9-9-0-0---0-0---0-0------------------5-5-5-5-5-5-5-5-
      w     w                                       w     w


Chorus part 2 like this without whammy
|-----12-----12---------------------------------------12-----12-------------------------------------
|---------------------------------------------------------------------------------------------------
|-------------------9-9-9-9-9-9-9-----------------------------------9-9-9-9-9-9-9-9-----------------
|-------------------9-9-9-9-9-9-9-9-9-9-9-9-9-9-9-------------------9-9-9-9-9-9-9-9-5-5-5-5-5-5-5-5-
|-------------------7-7-7-7-7-7-7-9-9-9-9-9-9-9-9-------------------7-7-7-7-7-7-7-7-5-5-5-5-5-5-5-5-
|-0-0----0-0----0-0---------------9-9-9-9-9-9-9-9-0-0----0-0----0-0-----------------5-5-5-5-5-5-5-5-


End riff
|---------------------------
|---------------------------
|---------------------------
|-0-2-2-0-2-2-0-2-2-5-5-3-3-
|-0-2-2-0-2-2-0-2-2-5-5-3-3-
|-0-2-2-0-2-2-0-2-2-5-5-3-3-
Comments