Konami - Metal Gear Solid 2 Theme Chords & Tabs

 

Metal Gear Solid 2 Theme Chords & Tabs

Konami Chords & Tabs

Version: 2 Type: Tab 0 ratings
1 star 2 stars 3 stars 4 stars 5 stars
comments

Metal Gear Solid 2 Theme Tab

   
First off all I would like to announce this as my first tab. I really enjoyed learning
And please, if there are any problems and suchalike, please correct them yourself and
send them to me at "Nefri89@hotmail.com"

* = long note
s = short note

CHORUS:

Either you can play like this:
E-0-------------0*------0--5-3-0---------0--8-7-8-10-8-5-7-8-7-5-
---3-1*--1-3-1---3-1-3-----------1-3*--3-------------------------
G----------------------------------------------------------------
D----------------------------------------------------------------
A----------------------------------------------------------------
E----------------------------------------------------------------
[ Tab from: http://www.guitartabs.cc/tabs/k/konami/metal_gear_solid_2_theme_tab_ver_2.html ]
E-3-5**-
B-------
G-------
D-------
A-------
E-------

Or you can play it like this (useful when they play lower):
First off all I would like to announce this as my first tab. I really enjoyed
learning this and I hope that you will to.. Enjoy ;)


Or you can play like this:
E----------------------------------------------------------------
B-------------------------------------------3-2-3-5-3-0--2-3-2-0-
G-0-------------0------0*--5-3-0---------0-----------------------
D---3-1*--1-3-1---3-1-3-----------1-3*--3------------------------
A----------------------------------------------------------------
E----------------------------------------------------------------

E------------
B------------
G------------
D-3-5***-----
A-3-5--------
E------------

Further Updates may show up.

//Teroon
Comments