Konami - Metal Gear Solid 2 Theme Chords & Tabs

 

Metal Gear Solid 2 Theme Chords & Tabs

Konami Chords & Tabs

Version: 1 Type: Tab 0 ratings
1 star 2 stars 3 stars 4 stars 5 stars
comments

Metal Gear Solid 2 Theme Tab

This is probably not 100% correct but pretty close.

(You can play the chorus and interlude as a power chord with distortion, just cover the two strings while playing.)


E------------------
B------------------
G------------------
D------------------
A-3-4-5---5-6-7
E-1-2-3---3-4-5


Chorus 
E------------------------------------------------
B------------------------------------------------
G------------------------------------------------
D------------------------------------------------
A-5-3--------3-5-7-5---5-7-9---9-11-9-7-9--------
E------3---3-------------------------------------

[ Tab from: http://www.guitartabs.cc/tabs/k/konami/metal_gear_solid_2_theme_tab.html ]
E-------------------------------------------------------------------
B-------------------------------------------------------------------
G-9-11-13---13-15-17-15-13---11-13-15---15-13-11-9-11---------------
D-------------------------------------------------------------------
A-------------------------------------------------------------------
E-------------------------------------------------------------------


Interlude
(Played  Slowly)
E--------------------------------------------------------------------------
B-------------------------0--00-----------------------------3--1-11--------
G-------0--00-----0-------------0---------0--00-------0-------------2------
D-0------------1------1--------------0-------------1-----------------------
A----1-----------------------------------1---------------------------------
E--------------------------------------------------------------------------

There is all the parts in the song.  Sorry for any mistakes. Enjoy.
Comments