Koko Blof - Bat Sheva Chords & Tabs

 

Bat Sheva Chords & Tabs

Koko Blof Chords & Tabs

Version: 1 Type: Tab 0 ratings
1 star 2 stars 3 stars 4 stars 5 stars
comments

Bat Sheva Tab

#-----------------------------------------------------------------------------#
#-- File created with Instab - http://www.pconline.com/~smcarey/instab.html --#
#-----------------------------------------------------------------------------#

Author/Artist: ÷å÷å áìåó åäéúåùéí
Title: áú ùáò
Album: áéöéí
Transcribed by: ãåã îéøö÷é
Email: dmiretski@hotmail.com

îéëàì âåðé÷ äåîå!!!!!!!!!!!!!!!!!!!!!!!!
[ Tab from: http://www.guitartabs.cc/tabs/k/koko_blof/bat_sheva_tab.html ]
ôæîåï:
---------------|---------|----------
---------------|---------|----------
-5-x-x--7-x-x--|--9-x-x--|-5--7--9--
-5-x-x--7-x-x--|--9-x-x--|-5--7--9--
-3-x-x--5-x-x--|--7-x-x--|-3--5--7--
---------------|---------|----------
                                                                              
áéú:
-------|------|----
-------|------|----
--9----|-10---|----
--9----|-10---|----
--7----|-8----|----
-------|------|----
                                                                              
÷èòåï áàñ:
-------------------|------------------|----
-------------------|------------------|----
-------------------|------------------|----
-------------------|------------------|----
-------------------|------------------|----
--0-7h8-5-0-7h8-5--|-1-7h8-5-1-7h8-5--|----

áæîï ä÷èòåï áàñ äâéèøä òåùä:

-------------------|------------------|----
-------------------|------------------|----
--9-------9--------|-10------10-------|----
--9-------9--------|-10------10-------|----
--7-------7--------|-8-------8--------|----
-------------------|------------------|----

                                                                              
îòáø:
-----------------|--------------|----
-----------------|--------------|----
------5-------7--|-----9-----9--|----
----5-------7----|---9-----9----|----
--3-------5------|-7-----7------|----
-----------------|--------------|----
                                                                              

Comments