Knopfler Mark - Sailing To Philadelphia Chords & Tabs

 

Sailing To Philadelphia Chords & Tabs

Knopfler Mark Chords & Tabs

Version: 1 Type: Tab 1 rating
1 star 2 stars 3 stars 4 stars 5 stars
comments

Sailing To Philadelphia Tab

   
##################################################################################
# This file is the author's own work and represents their interpretation of the  #
# song. You may only use this file for private study, scholarship, or research.  #
##################################################################################

Mark Knopfler - Sailing to Philadelphia

Intro:

       F#m11                                            Eadd9           E
|-----|~~~~~~------------|--------------|--------------|---------------|------|
|-----|0-----------------|-2------------|-----------2--|---------------|------|
|----2|------4>6>4-2---4-|----2---------|--------2-----|-4-------4->-1-|------|
|---4-|------------------|--------4>2-4-|-----4--------|---------------|------|
|--4--|------------------|--------------|--------------|---------------|------|
|-2---|------------------|--------------|--------------|---------------|------|
        
                                                                           
Verse 1

Verse 2

Chorus

Verse 3

Verse 4

Chorus


Fig1: 
 F#m11                                          
|---------2-------|-------------------|
|-----------2-----|-------------------|
|--------------2--|-------------------|
|-----------------|-4-----------------|
|-----------------|-------------------|
|-----------------|-------------------|

[ Tab from: http://www.guitartabs.cc/tabs/k/knopfler_mark/sailing_to_philadelphia_tab.html ]
Fig2: 
 D       Dmaj7      E        A                                   
|-----------------|-------------------|
|-----------------|-5-----------------|
|--------6--------|-------------------|
|----------7------|-------------------|
|--------------7--|-------------------|
|-----------------|-------------------|


Fig3:   
 F#m      D        A         C#m       Bm     E            C#m                                        
|-----------------|-------------------|----5------------|-------------------|
|---------5-3-2>3>|2------------------|----5--5--5------|-------------------|
|-------------2---|-------------------|----4--2--4----4-|-------------------|
|---------6-4-----|-------------------|-----------------|--(6)--------------|
|-----------------|-------------------|-----------------|-------------------|
|-----------------|-------------------|-----------------|-------------------|


Fig4: 
 E                                       D      E          A                                          
|-----------------0-------------------|-----------------|-------------------|
|-----------------0-------------------|--3------5-------|-------------------|
|-----------------2->-1---------------|-----------------|--6----------------|
|--------------------------4-----2----|--4------6-------|--7----------------|
|-------------------------------------|-----------------|-------------------|
|-------------------------------------|-----------------|-------------------|

Comments