Knopfler Mark - Prairie Wedding Chords & Tabs

 

Prairie Wedding Chords & Tabs

Knopfler Mark Chords & Tabs

Version: 1 Type: Tab 0 ratings
1 star 2 stars 3 stars 4 stars 5 stars
comments

Prairie Wedding Tab

##################################################################################
# This file is the author's own work and represents their interpretation of the  #
# song. You may only use this file for private study, scholarship, or research.  #
##################################################################################

Mark Knopfler  _
             _____
           _________   
         _____________
        Prairie Wedding
         _____________
           _________
             _____ 
               _

Fills played blues style plenty of bass
Solo played fairly normal, lovely singing guitar


E|----------------------------------|
B|----------------------------------|
G|----------------------------------|
D|-----1h3-3p1--1h3-4h5p4p3-1-------|
A|-1h3------------------------3-1h3-|
E|----------------------------------|



E|---------------------------------------|
B|---------------------------------------|
G|---------------------------------------|
D|-----1h3-3p1--1h3-4h5p4p3-1------------|
A|-1h3------------------------3-1h3------|
E|-------------------------------------1-|


E|----------------------------------|
B|----------------------------------|
G|----------------------------------|
D|-----1h3-3p1--1h3-4h5p4p3-1-------|
A|-1h3------------------------3-1h3-|
E|----------------------------------|


Solo 
[ Tab from: http://www.guitartabs.cc/tabs/k/knopfler_mark/prairie_wedding_tab.html ]
E|---3---3p1--------1-------------------3---3----3p1-|
B|-3---3--------1h3---3p1-----1-----3-3---3---3------|
G|------------3-----------3--------------------------|
D|---------------------------------------------------|
A|---------------------------------------------------|
E|---------------------------------------------------|

E|--------------------------------------------------------|
B|-------3h4p3------3-----8b(10)-6h8---------------8b(10)-|
G|-5b(7)--------5p3---5---------------5--------10---------|
D|----------------------------------------7h10------------|
A|--------------------------------------------------------|
E|--------------------------------------------------------|

E|---------------------------------------0h1p0---------|
B|-6h8-6h8p6-4-------3-1---3-1------3b(5)------3-1h3---|
G|--------------3h5------3--------5------------------3-|
D|------------------------------5----------------------|
A|-----------------------------------------------------|
E|-----------------------------------------------------|

E|----------------------------|
B|----------------------------|
G|-----3----------------------|
D|-3h5---3-1h3-1--------------|
A|---------------3--3-1-----3-|
E|------------------------1---|


E|----------------------------------|fades out at end
B|----------------------------------|
G|----------------------------------|
D|-----1h3-3p1--1h3-4h5p4p3-1-------|
A|-1h3------------------------3-1h3-| 
E|----------------------------------|


Tabbed By 
         Steve Cooper
Comments