Knightride - Multistair Chords & Tabs

 

Multistair Chords & Tabs

Knightride Chords & Tabs

Version: 2 Type: Tab 0 ratings
1 star 2 stars 3 stars 4 stars 5 stars
comments

Multistair Tab

   
Song: Multistair
Artist: knightride

hello all, nice little riff. easy to play. try to pace it faster
and slower in sections and also softer and louder.Enjoy
intro
E---------------------------------------------------------------------------------------------------|
B-----------1-----------------1-----------------1-----------------1---------------------------------|
G------2------2---2------2------2---2-------0-----0---0------0------0---0-------------4 times-------|
D----2---2------2------2---2------2-------2---2-----2------2---2------2-----------------------------|
A--0-----------------0------------------3----------------3------------------------------------------|
E---------------------------------------------------------------------------------------------------|
[ Tab from: http://www.guitartabs.cc/tabs/k/knightride/multistair_tab_ver_2.html ]
   Am    C     Am    Dm   Am    C     Am    E
---------------------1----------------------------0--------0-----------------------|
---1-----1-----1-----3----1-----1-----1-----------0--------0-----------------------|
---2-----0-----2-----2----2-----0-----2-----1---------1----------------------------|
---2-----2-----2-----0----2-----2-----2-----2---------2----------------------------|
---0-----3-----0----------0-----3-----0-----2---------2----------------------------|
--------------------------------------------0---------0----------------------------|
strum between each chord

the next time through for the Dm add a little hammer and pull-off
before moving to the Am.

----1h3p1p0--------------------------


improvise a little on the strumming as he plays it at i think a 1/8

any comments.............bdk78u@hotmail.com
Comments