Knapsack - Change Is All The Rage Chords & Tabs

 

Change Is All The Rage Chords & Tabs

Knapsack Chords & Tabs

Version: 1 Type: Tab 0 ratings
1 star 2 stars 3 stars 4 stars 5 stars
comments

Change Is All The Rage Tab

**********************************************************************************
Artist: Knapsack
Song: Change Is All The Rage
Album: This Conversation Is Ending Starting Right Now
Year: 1998
Tabbed by: Mike Takahashi
	   mike@takadesigns.com
	   http://www.takadesigns.com
Notes: This is such a great album and I was surprised that hardly any tabs
       existed.  Knapsack at its prime with producer Mark Trombino already
       building his arsenal of great bands.
**********************************************************************************

Tunning: Standard
x - mute string with playing hand not strumming hand


[Intro]

[Guitar 1] 								      [x2]
E---------------------------------------------------------------------------------|
B---------------------------------------------------------------------------------|
G-7-7-7-7---6-6-6-6---7-7-7-7---12-12-12-12---------------------------------------|
D-7-7-7-7---7-7-7-7---7-7-7-7---12-12-12-12---------------------------------------|
A-5-5-5-5---7-7-7-7---5-5-5-5---10-10-10-10---------------------------------------|
E---------------------------------------------------------------------------------|

[Guitar 2]        							      [x2]
E---------------------------------------------------------------------------------|
B---------------------------------------------------------------------------------|
G-12-11---9-11-11-9---12-11---9-11-11-9---12-11---9-11-11-9-----------------------|
D--------------------------------------------------------------12-14-14-12-14-----|
A---------------------------------------------------------------------------------|
E---------------------------------------------------------------------------------|

[Verse 1 - Repeat Twice]

       I fell in love for us tonight...
E---------------------------------------------------------------------------------|
B---------------------------------------------------------------------------------|
G-----------7---------------7----------------7---------------7-7-7----------------|
D-9-9-9-9---7-7---5-5-5-5---7-7----9-9-9-9---7-7---5-5-5-5---7-7-7-7-7------------|
A-9-9-9-9---5-7---5-5-5-5---5-7----9-9-9-9---5-7---5-5-5-5---5-5-5-7-7------------|
E-7-7-7-7-----5---3-3-3-3-----5----7-7-7-7-----5---3-3-3-3---------5-5------------|


E---------------------------------------------------------------------------------|
B---------------------------------------------------------------------------------|
G-----------7---------------7----------------7---------------7--------------------|
D-9-9-9-9---7-7---5-5-5-5---7-7----9-9-9-9---7-7---5-5-5-5---7-7------------------|
A-9-9-9-9---5-7---5-5-5-5---5-7----9-9-9-9---5-7---5-5-5-5---5-7------------------|
E-7-7-7-7-----5---3-3-3-3-----5----7-7-7-7-----5---3-3-3-3-----5------------------|

    And I can see forever...
E---------------------------------------------------------------------------------|
B---------------------------------------------------------------------------------|
G---------------------------------------------------------------------------------|
D-5-5-5-5---7-7-7-7---9-9-9-9---12-12-12-12---------------------------------------|
A-5-5-5-5---7-7-7-7---9-9-9-9---12-12-12-12---------------------------------------|
E-3-3-3-3---5-5-5-5---7-7-7-7---10-10-10-10---------------------------------------|

E---------------------------------------------------------------------------------|
B---------------------------------------------------------------------------------|
G---------------------------------------------------------------------------------|
D-----5---------7---------9-----------12------------------------------------------|
A---5---5-----7---7-----9---9------12----12---------------------------------------|
E-3---------5---------7---------10------------------------------------------------|

	And all these things... 					      [x2]
E---------------------------------------------------------------------------------|
B---------------------------------------------------------------------------------|
G-12-12-12-12-12-12-12-12---9-9-9-9-9-9-9-9---------------------------------------|
D-X--X--X--X--X--X--X--X----X-X-X-X-X-X-X-X---------------------------------------|
A-10-10-10-10-10-10-10-10---7-7-7-7-7-7-7-7---------------------------------------|
E---------------------------------------------------------------------------------|


   We are promised....
E---------------------------------------------------------------------------------|
B---------------------------------------------------------------------------------|
G---------------------------------------------------------------------------------|
D-5-5-5-5---7-7-7-7---9-9-9-9---12-12-12-12---------------------------------------|
A-5-5-5-5---7-7-7-7---9-9-9-9---12-12-12-12---------------------------------------|
E-3-3-3-3---5-5-5-5---7-7-7-7---10-10-10-10---------------------------------------|

        I am ready to expire....
E---------------------------------------------------------------------------------|
B---------------------------------------------------------------------------------|
G---------------------------------------------------------------------------------|
D-5-5-5-5---7-7-7-7---14-14-14-14-14-14-14-14---12-12-12-12-12-12-12-12-----------|
A-5-5-5-5---7-7-7-7---14-14-14-14-14-14-14-14---12-12-12-12-12-12-12-12-----------|
E-3-3-3-3---5-5-5-5---12-12-12-12-12-12-12-12---10-10-10-10-10-10-10-10-----------|

[ Tab from: http://www.guitartabs.cc/tabs/k/knapsack/change_is_all_the_rage_tab.html ]
E---------------------------------------------------------------------------------|
B---------------------------------------------------------------------------------|
G---------------------------------------------------------------------------------|
D-5-5-5-5---7-7-7-7---9-9-9-9---12-12-12-12---------------------------------------|
A-5-5-5-5---7-7-7-7---9-9-9-9---12-12-12-12---------------------------------------|
E-3-3-3-3---5-5-5-5---7-7-7-7---10-10-10-10---------------------------------------|

                      [Play first time only]
E---------------------------------------------------------------------------------|
B---------------------------------------------------------------------------------|
G---------------------------------------------------------------------------------|
D-5-5-5-5---7-7-7-7---14-14-14-14-14-14-14-14---12-12-12-12-12-12-12-12-----------|
A-5-5-5-5---7-7-7-7---14-14-14-14-14-14-14-14---12-12-12-12-12-12-12-12-----------|
E-3-3-3-3---5-5-5-5---12-12-12-12-12-12-12-12---10-10-10-10-10-10-10-10-----------|

E---------------------------------------------------------------------------------|
B---------------------------------------------------------------------------------|
G---------------------------------------------------------------------------------|
D-12-12-12-12-12-12-12-12-12------------------------------------------------------|
A-12-12-12-12-12-12-12-12-12------------------------------------------------------|
E-9--9--9--9--9--9--9--9--9-------------------------------------------------------|


[Verse 2]

            For your protection....
E---------------------------------------------------------------------------------|
B---------------------------------------------------------------------------------|
G-7-7-7-7---6-6-6-6---7-7-7-7---12-12-12-12---------------------------------------|
D-7-7-7-7---7-7-7-7---7-7-7-7---12-12-12-12---------------------------------------|
A-5-5-5-5---7-7-7-7---5-5-5-5---10-10-10-10---------------------------------------|
E---------------------------------------------------------------------------------|

E---------------------------------------------------------------------------------|
B---------------------------------------------------------------------------------|
G-7-7-7-7---6-6-6-6---7-7-7-7---12-12-12-12---------------------------------------|
D-7-7-7-7---7-7-7-7---7-7-7-7---12-12-12-12---------------------------------------|
A-5-5-5-5---7-7-7-7---5-5-5-5---10-10-10-10---------------------------------------|
E---------------------------------------------------------------------------------|


           And honestly,    I never thought....  		              [x2]
E---------------------------------------------------------------------------------|
B---------------------------------------------------------------------------------|
G-7-7-7-7-7-7-7-7---9-9-9-9-9-9-9-9---12-12-11-11-9-9-11-11---7-7-7-7-7-7-7-7-----|
D-X-X-X-X-X-X-X-X---X-X-X-X-X-X-X-X---X--X--X--X--X-X-X--X----X-X-X-X-X-X-X-X-----|
A-5-5-5-5-5-5-5-5---7-7-7-7-7-7-7-7---10-10-9--9--7-7-9--9----5-5-5-5-5-5-5-5-----|
E---------------------------------------------------------------------------------|

    We are promised....
E---------------------------------------------------------------------------------|
B---------------------------------------------------------------------------------|
G---------------------------------------------------------------------------------|
D-5-5-5-5---7-7-7-7---9-9-9-9---12-12-12-12---------------------------------------|
A-5-5-5-5---7-7-7-7---9-9-9-9---12-12-12-12---------------------------------------|
E-3-3-3-3---5-5-5-5---7-7-7-7---10-10-10-10---------------------------------------|

                      I am ready to expire...
E---------------------------------------------------------------------------------|
B---------------------------------------------------------------------------------|
G---------------------------------------------------------------------------------|
D-5-5-5-5---7-7-7-7---14-14-14-14-14-14-14-14---12-12-12-12-12-12-12-12-----------|
A-5-5-5-5---7-7-7-7---14-14-14-14-14-14-14-14---12-12-12-12-12-12-12-12-----------|
E-3-3-3-3---5-5-5-5---12-12-12-12-12-12-12-12---10-10-10-10-10-10-10-10-----------|

      And now this breaking news...
E---------------------------------------------------------------------------------|
B---------------------------------------------------------------------------------|
G---------------------------------------------------------------------------------|
D-5-5-5-5---7-7-7-7---9-9-9-9---12-12-12-12---------------------------------------|
A-5-5-5-5---7-7-7-7---9-9-9-9---12-12-12-12---------------------------------------|
E-3-3-3-3---5-5-5-5---7-7-7-7---10-10-10-10---------------------------------------|

					For your protection....
E---------------------------------------------------------------------------------|
B---------------------------------------------------------------------------------|
G---------------------9-9-9-9-9-9-9-9----7-7-7-7-7-7-7-7---6-6-6-6-6-6-6-6--------|
D-5-5-5-5---7-7-7-7---X-X-X-X-X-X-X-X----X-X-X-X-X-X-X-X---X-X-X-X-X-X-X-X--------|
A-5-5-5-5---7-7-7-7---7-7-7-7-7-7-7-7----5-5-5-5-5-5-5-5---4-4-4-4-4-4-4-4--------|
E-3-3-3-3---5-5-5-5---------------------------------------------------------------|

E---------------------------------------------------------------------------------|
B---------------------------------------------------------------------------------|
G-4-4-4-4-4-4-4-4-4-4-4-4-4---7---------------------------------------------------|
D-X-X-X-X-X-X-X-X-X-X-X-X-X---X---------------------------------------------------|
A-2-2-2-2-2-2-2-2-2-2-2-2-2---5---------------------------------------------------|
E---------------------------------------------------------------------------------|
Comments