Knack - My Sharona Chords & Tabs

 

My Sharona Chords & Tabs

Knack Chords & Tabs

Version: 3 Type: Tab 0 ratings
1 star 2 stars 3 stars 4 stars 5 stars
comments

My Sharona Tab

INTRO (TIME 11 SEC)
e------------------------------------------------------8-----------------
b------------------------------------------------------8-----------------
g------------------------------------------------------9-----------------
d------------------------------------------------------10----8---10---8--
a------------------------------------------------------10----8---10---8--
e------------------------------------------------------8-----6---8----6--

INTRO AND VERSE   (3 TIMES)  (TIME 13 SEC)
e-----------------------------------------------------8-----------------
b-----------------------------------------------------8-----------------
g-----------------------------------------------------9-----------------
d------55----5------5-------5-------55--------5-------10----8---10---8--
a-----------------------------------------------------10----8---10---8--
e--33-----3-----3------33-----2/33-------3------------8-----6---8----6--

PRE - CHORUS / CHORUS (TIME 32 SEC)
e----------------------------------------------------------------------------
b----------------------------------------------------------------------------
g----------------------------------------------------------------------------
d------55--------55---------55--------5/8-------88------88-------88-------8--
a----------------------------------------------------------------------------
e-33-------33---------33--------33--------66--------66-------66-------66-----

e---------------------------------------------------------
b---------------------------------------------------------
g----5--5------8--8----8----10----------------------------
d----5--5------8--8----8----10----------------------------
a----3--3------6--6----6----8-----------------------------
e---------------------------------------------------------

 END CHORUS + VERSE (TIME 42 SEC) - (3 TIMES)
e----------------------------------------------------8-----------------
b----------------------------------------------------8-----------------
g----------------------------------------------------9-----------------
d------55----5------5-------5--------55--------5-----10----8---10---8--
a----------------------------------------------------10----8---10---8--
e--33-----3-----3------33-----2/33--------3----------8-----6---8----6--

PRE - CHORUS / CHORUS (TIME 1:01)
e----------------------------------------------------------------------------
b----------------------------------------------------------------------------
g----------------------------------------------------------------------------
d------55--------55---------55-------5/8-------88--------88-------88---------
a----------------------------------------------------------------------------
e-33-------33---------33--------33--------66--------66-------66--------66----

e------------------------------------
b------------------------------------
g----5--5------8--8----8---10--------
d----5--5------8--8----8---10--------
a----3--3------6--6----6---8---------
e------------------------------------

BRIDGE (TIME 1:12)  GUITAR 1
e------------------------------------------------------------------
b------------------------------------------------------------------
g------------------------------------------------------------------
d------55----5------5-------5--------55-------5--------5--------5--
a------------------------------------------------------------------
e--33-----3-----3------33-----2/33--------3--------3-------33------

Guitar 1 - (TIME 1:18)
e--------------------------------------
b---6---5------------------------------
g---5---5----10--8------10--8--10------
d---5---5----8---8------10--8--10------
a---3---3----6---6------8---6--8-------
e--------------------------------------

GUITAR 2  (TIME 1:21)
e-------------------------------------------
b-------------------------------------------
g-------------------------------------------
d-------------------------------------------
a--3-3-3-3-3-3-3b3.5-------1-------1--------
e------------------------------3--------3---

GUITAR 1 (TIME 1:21)
e------------------------------------------------------------------
b------------------------------------------------------------------
g------------------------------------------------------------------
d------55----5------5-------5---------55-------5-------5--------5--
a------------------------------------------------------------------
e--33-----3-----3------33-----2/33---------3-------3-------33------

GUITAR 1 (TIME 1:25)
e--------------------------------------
b---6---5------------------------------
g---5---5----10--8-----10--8--10-------
d---5---5----8---8-----10--8--10-------
a---3---3----6---6-----8---6--8--------
e--------------------------------------

GUITAR 2  (TIME 1:27)
e------------------------------------------
b------------------------------------------
g--------------------------------3---------
d-------------------------3---------5------
a-----------------------------5------------
e--1-1-1-1-1-1-3---------------------------

GUITAR 1 (TIME 1:27)
e---------------------------------------------------------------------------
b---------------------------------------------------------------------------
g---------------------------------------------------------------------------
d------55----5------5-------5---------55-------5---------5--------5---------
a---------------------------------------------------------------------------
e--33-----3-----3------33-----2/33---------3--------3--------33-------------

GUITAR 1 (TIME 1:31)
e----------------------------------------------
b---6---5--------------------------------------
g---5---5-----10--8------10--8--10-------------
d---5---5-----8---8------10--8--10-------------
a---3---3-----6---6------8---6--8--------------
e----------------------------------------------

GUITAR 2  (TIME 1:34)
e----6-6-6-6-6-6--------------3----------------------
b6pb8-8-8-8-8-8-----3---6---------------------------
g----------------------------------5-----------------
d----------------------------------------------------
a----------------------------------------------------
e----------------------------------------------------
       NOTE: pb = pre bend, bend the string up before 
playing it. Hold up whist strumming the 6 and 8 on 
the e and b strings.

GUITAR 1 (TIME 1:34)
e---------------------------------------------------------------------------
b---------------------------------------------------------------------------
g---------------------------------------------------------------------------
d------55----5------5-------5---------55--------5--------5--------5---------
a---------------------------------------------------------------------------
e--33-----3-----3------33-----2/33---------3--------3--------33-------------
 
GUITAR 1 (TIME 1:37)
e---------------------------------------
b---6---5-------------------------------
g---5---5-----10--8------10--8--10------
d---5---5-----8---8------10--8--10------
a---3---3-----6---6------8---6--8-------
e---------------------------------------

GUITAR 2  (TIME 1:40)
e-----6-----------6----------6-6-6------------
b6b8r--------6b8r--------6pb8-8-8------------
g---------------------------------------------
d---------------------------------------------
a---------------------------------------------
e---------------------------------------------
NOTE: the pre bend here is the same as before. 
Bend up before playing it.

VERSE  (TIME 1:44) - (4 TIMES)  
e----------------------------------------------------8-----------------
b----------------------------------------------------8-----------------
g----------------------------------------------------9-----------------
d------55----5------5-------5--------55-------5------10----8---10---8--
a----------------------------------------------------10----8---10---8--
e--33-----3-----3------33-----2/33--------3----------8-----6---8----6--
[ Tab from: http://www.guitartabs.cc/tabs/k/knack/my_sharona_tab_ver_3.html ]
PRE - CHORUS / CHORUS (TIME 2:10)
e----------------------------------------------------------------------------
b----------------------------------------------------------------------------
g--------------------------------------------------------------------------- 
d------55--------55---------55--------5/8------88-------88--------88------8--
a----------------------------------------------------------------------------
e-33-------33---------33--------33--------66-------66--------66-------66-----

e----------------------------------------------------------
b----------------------------------------------------------
g----5--5------8--8----8---10------------------------
d----5--5------8--8----8---10------------------------
a----3--3------6--6----6---8-------------------------
e----------------------------------------------------------

    (TIME 2:19)
e--------------------------------------------------------------
b--------------------------------------------------------------
g-----------------------------------5--5-----8--8------8--10---
d------55-----5-------5--------5----5--5-----8--8------8--10---
a-----------------------------------3--3-----6--6------6--8----
e--33-----3-------3-------33-----------------------------------

   (TIME 2:26)  (2 TIMES)
e-------------------------------------------------------------------
b-------------------------------------------------------------------
g-------------------------------------------------------------------
d------55-----5-------5-------5---------55-----5-------5---------5--
a-------------------------------------------------------------------
e--33------3-------3-------33-----2/33------3------3-------33-------

SOLO (TIME 2:29) NOTE: This is the riff played by guitar 1 not the solo guitar.
This is played behind the solo.
e----------------------1--1----1--1------3--------------------------
b---5------3---3-------1--1----1--1------3--------------------------
g---5------4---4-------2--2----2--2------4--------------------------
d---5------5---5-------3--3----3--3------5--------------------------
a---3------3---3----------------------------------------------------
e-------------------------------------------------------------------

Guitar 2 Solo (TIME 2:45)

e------------------------------------------------------
b-----------------------------------------------8------
g-0-2/5-4457--b7-7h9p7-5\4-5/7-9------------7-b7--7----
d-------------------------------55-5h7p5-575-----------
a---------------------------------------8--------------
e------------------------------------------------------


e-----------------------------------8-------8------8----
b--------------------------------888-----888----888-----
g-75-75--b7-7p5-75-----5h7p5-5-b7------b7-----b7--------
d-------8------7--775h7-----7---------------------------
a-------------------------------------------------------
e-------------------------------------------------------


e---------------------------------8-10p8-------8-10p8----
b-------------------8-10p8--8-8h10------10-8h10------10--
g-77-b7--7p5-57--7/9------9------------------------------
d--------------------------------------------------------
a--------------------------------------------------------
e--------------------------------------------------------


e-8-12p8--8-10p8--8-12p8--8-10p8--8-12p8-12p8--8-10p8-10p8--
b-------10------10------10------10-----------10-------------
g-----------------------------------------------------------
d-----------------------------------------------------------
a-----------------------------------------------------------
e-----------------------------------------------------------


e---8-12p8--8-13p8--8-12p8--8-10p8--8-12p8--8-------------
b-10------10------10------10------10------10--------------
g---------------------------------------------------------
d---------------------------------------------------------
a---------------------------------------------------------
e---------------------------------------------------------

   <-----REPEAT 3x---------->
e-|12p8-12p8-10p8-10p8-10p8--|-13p8-12p8-10p8-12p8--------
b-|---------8---------8----8-|-----8----8----8----8-------
g-|--------------------------|----------------------------
d-|--------------------------|----------------------------
a-|--------------------------|----------------------------
e-|--------------------------|----------------------------


e------------------12-------17---------------------------
b------13h15p13-b15--b15-b15--b15-b15-b15p13--13---------
g-12/14-------------------------------------14-----------
d--------------------------------------------------------
a--------------------------------------------------------
e--------------------------------------------------------

    <-REPEAT 10x>
e-|----15-15-15-|-----------------15-17p15--15----------
b-|-b15---------|-b15-15-13--15/17--------17------------
g-|-------------|---------------------------------------
d-|-------------|---------------------------------------
a-|-------------|---------------------------------------
e-|-------------|---------------------------------------

   <----2x-----> <---3x--> <16x> 
e-17p15-17p15--|17p15--15|-b18-|--------------------------
b------------17|-----17--|-----|b15-13-----13-15p13--13---
g--------------|---------|-----|------12\14--------14-----
d--------------|---------|-----|--------------------------
a--------------|---------|-----|--------------------------
e--------------|---------|-----|--------------------------


e-b15-15-12-----------------------------------------------
b----------15-17-17-17-17-15\13h15-13\12h13-12\10h12------
g---------------------------------------------------------
d---------------------------------------------------------
a---------------------------------------------------------
e---------------------------------------------------------


e-------------------------------------5-------------------
b-10\8h10-8\6h8-6\5h6p5-5p4-4p3-3p2-----8-5h6p5-5---------
g----------------------------------b7----------7-b7-b7p5--
d-------------------------------------------------------7-
a---------------------------------------------------------
e---------------------------------------------------------

        <8x> <2x->     <2x-> <2x|8x>
e-------|--5|--5-5|--5|--5-5|--5|--|-8-5-5----------------
b-------|--5|--5-5|--5|--5-5|--5|55|5---8-8-5-6-5-5-------
g-5-5-5-|b7-|b7---|b7-|b7---|b7-|b7|-------------7-7-5----
d----7--|---|-----|---|-----|---|--|----------------------
a-------|---|-----|---|-----|---|--|----------------------
e-------|---|-----|---|-----|---|--|----------------------


e---------------------------------------------------------
b-55-55-33-33-88--88--55-55-33-55-55-33-33-88--88--55-55--
g-b7-b7-b5-b5-b10-b10-b7-b7-b5-b7-b7-b5-b5-b10-b10-b7-b7--
d---------------------------------------------------------
a---------------------------------------------------------
e---------------------------------------------------------

END SOLO (TIME 4:13)
e-------------------------------
b-------------------------------
g----7-7-7-7-7-7-7-7-7-7--------
d----7-7-7-7-7-7-7-7-7-7--------
a----5-5-5-5-5-5-5-5-5-5--------
e-------------------------------

OUTRO (TIME 4:19)
e-------------------------------------------------------------------
b-------------------------------------------------------------------
g-------------------------------------------------------------------
d------55-----5-------5-------5---------55------5-------5--------5--
a-------------------------------------------------------------------
e--33------3------3------33------2/33-------3-------3-------33------

e------------------------------------------------------8-----------------
b------------------------------------------------------8-----------------
g------------------------------------------------------9-----------------
d------55----5------5-------5----------55-------5------10----8---10---8--
a------------------------------------------------------10----8---10---8--
e--33-----3-----3------33-------2/33--------3----------8-----6---8----6--
Comments