Kmfdm - Wwiii Chords & Tabs

 

Wwiii Chords & Tabs

Kmfdm Chords & Tabs

Version: 1 Type: Tab 0 ratings
1 star 2 stars 3 stars 4 stars 5 stars
comments

Wwiii Tab

   
Drop C

Main riff:
D------------------------------|
A------------------------------|
F------------------------------|
C--3-000000000-3-4-0000000-4-4-|  [x3]
G--3-000000000-3-4-0000000-4-4-|
C--3-000000000-3-4-0000000-4-4-|
[ Tab from: http://www.guitartabs.cc/tabs/k/kmfdm/wwiii_tab.html ]
on forth time
----------------|
----------------|
----------------|
--3-7-6-5-3-5-3-|
--3-7-6-5-3-5-3-|
--3-7-6-5-3-5-3-|

bridge
D----------|
A----------|
F----------|
C---7-7-6--|
G---7-7-6--|
C---7-7-6--|

Every other part in the song is rooted in one of these riffs.  Good Luck!
Comments