Kmfdm - Anarchy Chords & Tabs

 

Anarchy Chords & Tabs

Kmfdm Chords & Tabs

Version: 1 Type: Tab 0 ratings
1 star 2 stars 3 stars 4 stars 5 stars
comments

Anarchy Tab

   
KMFDM
Anarchy
Album: Symbols
Guitarists: Michel Bassin & Gunter Schulz

x : mute

E|---------------------------------|
B|---------------------------------|
G|-----6-6---------------6-6-------|
D|-------------6-6---------------6-|
A|-4-4-----4-4------4-4------4-4---|
E|---------------------------------|

Chorus
E|---------------------------------------------|
B|---------------------------------------------|
G|-6-6-6-6-6-6-6-6-9-9-9-9-9-9-9-9-11-11-11-11-|
D|-6-6-6-6-6-6-6-6-9-9-9-9-9-9-9-9-11-11-11-11-|
A|-4-4-4-4-4-4-4-4-7-7-7-7-7-7-7-7--9--9--9--9-|
E|---------------------------------------------|
[ Tab from: http://www.guitartabs.cc/tabs/k/kmfdm/anarchy_tab.html ]
 |---------------------------------|
 |---------------------------------|
 |-11-11-11-11-9-9-9-9-13-13-13-13-|
 |-11-11-11-11-9-9-9-9-13-13-13-13-|
 |--9--9--9--9-7-7-7-7-11-11-11-11-|
 |---------------------------------|
 
 |---------------------------------------------|
 |---------------------------------------------|
 |-6-6-6-6-6-6-6-6-9-9-9-9-9-9-9-9-11-11-11-11-|
 |-6-6-6-6-6-6-6-6-9-9-9-9-9-9-9-9-11-11-11-11-|
 |-4-4-4-4-4-4-4-4-7-7-7-7-7-7-7-7--9--9--9--9-|
 |---------------------------------------------|
 
 |------------------------------|
 |------------------------------|
 |-11-11-11-11-9-9-9-9--13-11-6-|
 |-11-11-11-11-9-9-9-9--13-11-6-|
 |--9--9--9--9-7-7-7-7--11--9-4-|
 |------------------------------|

"Anarchy"
E|---------|
B|---------|
G|-13-11-6-|
D|-13-11-6-|
A|-11--9-4-|
E|---------|

Outro
E|---------------------|
B|---------------------|
G|-13-x-x-12-x-x-11/12-|
D|-13-x-x-12-x-x-11/12-|
A|-11-x-x-10-x-x--9/10-|
E|---------------------|
Comments