Klearwater - Andy Frandy Chords & Tabs

 

Andy Frandy Chords & Tabs

Klearwater Chords & Tabs

Version: 1 Type: Tab 1 rating
1 star 2 stars 3 stars 4 stars 5 stars
comments

Andy Frandy Tab

   
---------------------------------------------------------------
This song is Something my friend (Ryan Kinney) and I created
a while ago.. We got the idea from a fat wrestler we created
back in the day! At the time we created this song we called
ourselves Klearwater so that is what I am posting it under!
          
                   Artist: Klearwater
                   Song: "Andy Frandy"
        Written By: Chris McAleenan & Ryan Kinney
             Transcripted By: Chris McAleenan

---------------------------------------------------------------
This song is played with acoustic guitars! Regular EADGBE Tuning.

Intro:
     E          C         D
e:-----------------------------|
B:-----------------------------|
G:-----------------------------| [Repeat x4]
D:--9-9-xx-----5-5-------7--7--|
A:--7-7-xx-----3-3-------5--5--|
E:-----------------------------|

----------------------------------------------------------------

Verses: 

Play "E, C, and D" just like Intro!..

----------------------------------------------------------------
[ Tab from: http://www.guitartabs.cc/tabs/k/klearwater/andy_frandy_tab.html ]
Chorus:
         C                  D
e:---------------------------------------|
B:---------------------------------------|
G:---------------------------------------| [Play Once After Verse]
D:---5-x-5-x-5-x-5-----7-x-7-x-7-7-7-----|
A:---3-x-3-x-3-x-3-----5-x-5-x-5-5-5-----|
E:---------------------------------------|

-----------------------------------------------------------------

Fill Between Chorus & Verse:
          Em
e:-------------------------------|
B:-------------------------------|
G:-------------------------------| x2  
D:---2-2-2-2-2-2-2-2-------------|
A:---2-2-2-2-2-2-2-2----5-5-5----|  End by play Playing G Then Em
E:---0-0-0-0-0-0-0-0----3-3-3----|

-----------------------------------------------------------------

     I might post the lyrics sometime in the near future!..

-----------------------------------------------------------------

  Send feedback to Chris McAleenan at- disco_stu12@hotmail.com
    Or send to Ryan Kinney at- chevy_ss_18@hotmail.com

-----------------------------------------------------------------
Comments