Klank - The Way Chords & Tabs

 

The Way Chords & Tabs

Klank Chords & Tabs

Version: 1 Type: Tab 0 ratings
1 star 2 stars 3 stars 4 stars 5 stars
comments

The Way Tab

Band: Klank
song: The Way

Tabber: John Cukras
email: riffreaper@yahoo.com

tuning: normal

riff 1:
E------------------------------------------------------------------------------|
B------------------------------------------------------------------------------|
G------------------------------------------------------------------------------|
D-22-------5-----6-----5-----3~------2------5------6-----5------------2--------|
A-22---------------------------------2--------------------------------2--------|
E-00---000---000---000---000-----2-1-0--000---000----000----3-5-6-5-3-0  x's 4-|
pm     ...   ...   ...   ...     . .    ...   ...    ...    . . . . .

Riff 2:
E---------------------------------------------------------|
B---------------------------------------------------------|
G---------------------------------------------------------|
D-10-9-7------------2----------------------2-10-9-7-------|
A-8--7-5---66666666-2-----3-----5-66666666-2-8--7-5-------|
E----------44444444-0-000-1-000-3-44444444-0------- x's 2-|
pm                    ...   ...
[ Tab from: http://www.guitartabs.cc/tabs/k/klank/the_way_tab.html ]
Riff 3:  Part A                             Part B
E----------------------------------------|-----------------------------|
B----------------------------------------|-----------------------------|
G----------------------------------------|-----------------------------|
D----------------------------------------|--------2--------------------|
A-4--5-7-8-7--8--4--5-7-8-7------3-----5-|--9--4--2------3-----5-------|
E-2--3-5-6-5--6--2--3-5-6-5--000-1-000-3-|--7--2--0--000-1-000-3 x's 2-|
pm   . . .          . . .    ...   ...               ...   ...

Riff 1 x's 2

Riff 2 x's 2

Riff 3

Riff 4:
E---------------------------15-19-17-15-19-17-15-----------------------------------------------------------------|
B------------------------------------------------19-17-15--------------------------------------------------------|
G--------------5-44---------------------------------------18-16-14/12~----------------5-44-----------------------|
D-1010\--------3-22------------------------------------------------------222----------3-22--5-10-9-7-9-55---4-3--|
A-8888\--3-4-5------4444-------------------------------------------------222-7--3-4-5-------3-8--7-5-7-33---2-1--|
E--------1-2-3------2222-------------------------------------------------000-5--1-2-3----------------------------|
pm       . . .                                                                  . . .

Riff 5:
E----------------------|
B----------------------|
G----------------------|
D----------------------|
A-3---3----------------|
E-1-0-1-0-1-0   x's 12-|
pm  .   . . .

Riff 1 x's 2

Riff 3: Part B x's 4

Riff 1 once
Comments