Klank - Numb Chords & Tabs

 

Numb Chords & Tabs

Klank Chords & Tabs

Version: 1 Type: Tab 0 ratings
1 star 2 stars 3 stars 4 stars 5 stars
comments

Numb Tab

   
Band: Klank
song: numb

tabber: John Cukras
email: riffreaper@yahoo.com

tuning: normal

riff 1:
E-------------------------------------------------|
B-------------------------------------------------|
G-------------------------------------------------|
D-------------------------------------------------|
A-3/6-0-0-00-5-00-4--------3/6-0-0-0000000--------|
E-1/4-0-0-00-3-00-2 x's 3--1/4-0-0-0000000  x's 2-|
pm    . . ..   ..              . . .......
[ Tab from: http://www.guitartabs.cc/tabs/k/klank/numb_tab.html ]
Riff 2:
E-----------------------------------------------------|
B-----------------------------------------------------|
G-----------------------------------------------------|
D-----------------------------------------------------|
A-3/5-55-5-55-5/4-44--------3/5-55-5-55-5/8-88--------|
E-1/3-33-3-33-3/2-22 x's 3--1/3-33-3-33-3/6-66  x's 2-|

Riff 3:   A                       B
E-----------------------------|------------|
B-----------------------------|------------|
G-2--2--------------2--2------|------------|
D-2--2--------------2--2------|-4----------|
A-0--0--5-3---------0--0--5-3-|-2--8-8-8-8-|
E-------3-1 x's 3---------3-1-|----6-6-6-6-|

Riff 1

Riff 2

Riff 3: A

Riff 4:
E------------------------------------|
B------------------------------------|
G------------------------------------|
D------------------------------------|
A-6/3-0-0-0-0-0-0--------------------|
E-4/1-0-0-0-0-0-0 x's 8 Then Riff 3--| B
pm    . . . . . .

Riff 2

Riff 3: A

Riff 4 x's 16
Comments