Klank - Deceived Chords & Tabs

 

Deceived Chords & Tabs

Klank Chords & Tabs

Version: 1 Type: Tab 0 ratings
1 star 2 stars 3 stars 4 stars 5 stars
comments

Deceived Tab

Band: Klank
Song: deceived

tabber: John Cukras
email: riffreaper@yahoo.com

tuning: normal

Riff 1: A                                    |    B                           Other guitar
E--------------------------------------------|-----------------------------|---------------------------------------------|
B--------------------------------------------|-----------------------------|--12-10----9-8-7--12-10----9-8---------------|
G--------------------------------------------|-----------------------------|--------12--------------12------12-9~-12-9~--|
D------------------------------2-----2-------|-------------2----2----------|---------------------------------------------|
A-5-4-444-44--5-4-444-44-5--5--2--5--2-------|-5-4--5-4--5-2--5-2--------3-|---------------------------------------------|
E-3-2-222-22--3-2-222-22-3--3--0--3--0 x's 2-|-3-2--3-2--3-0--3-0 x's 2--1-|---------------------------------------------|

Riff 2:
E----------------------------------------------|
B----------------------------------------------|
G----------------------------------------------|
D----------------------------------------------|
A-----5----4----9-7-----5----7/10/9-77-9-------|
E-0-0-3-00-2-00-7-5-0-0-3-00-5/8-/7-55-7 x's 4-|
pm. .   ..   ..     . .   ..
[ Tab from: http://www.guitartabs.cc/tabs/k/klank/deceived_tab.html ]
Riff 1: B

Riff 2

Riff 1: B

Riff 3:
E---------------------------------------------------------------------------------------------|
B---------------------------------------------------------------------------------------------|
G---------------------------------------------------------------------------------------------|
D---------------------------------------------------------------------------------------------|
A-3-3h2-1h2-3-3h2-1h2-3-3h2-1h2-3-4-7-6-----3h2-1h2----3h2-1h2----3h2-1h2-3-4-7-6--------444--|
E-1---------1---------1---------1-2-5-4--00---------00---------00---------1-2-5-4 x's 2--222--|
pm                                       ..         ..         ..

Riff 4:
E--------------------------------------------------------|
B--------------------------------------------------------|
G--------------------------------------------------------|
D--------------------------------------------------------|
A-5-4-3------------55-----44-----55----7----7-8-9--------|
E-3-2-1 x's 8--000-33-000-22-000-33-00-5-00-5-6-7 x's 10-|
pm             ...    ...    ...    ..   ..

Riff 2

Riff 1: B

End:
E-----------------|
B-----------------|
G-----------------|
D-----------------|
A----3h2-1h2----4-|
E-00---------00-2-|
pm..         ..
Comments