Kjwan - Twilight Chords & Tabs

 

Twilight Chords & Tabs

Kjwan Chords & Tabs

Version: 2 Type: Tab

Twilight Tab

Tabbed by: Rey Anthony Silva

        Elo Im a 3rd high school student from Pasig Catholic College
        2nd Tab ko to sa Ultimate...
        Sana Magustuhan nyo!
        Im 96.69 sure about this tabbed ^_^ hehe...

        
        
        \m/ Sana Magusuthan ny0 \m/

Intro:

e|-----------------------------|
B|-----------------------------|
G|--6----6-----6----6-----55---|  (4x)
D|----77---77----77---7—-------|
A|-----------------------------|
E|-----------------------------|
--------------------------------------------------
Guitar 1:

e|------------------------------|
B|--3--2----3--2---3--2---3--2--|
G|------------------------------|  
D|------------------------------|  
A|------------------------------|
E|------------------------------|

Guitar 2:

e|----------------------------|
B|----------------------------|
G|--6----6-----6----6-----55--|  (4x)
D|----77---77----77---—-7-----|
A|----------------------------|
E|----------------------------|
---------------------------------------------------

Then...

Guitar 1:
e|------------------------------|
B|--5xx--5xx--5xx---5x----55----|
G|--6xx--6xx--6xx---5x----55----|   
D|--7xx--7xx--7xx---6x----66—---| (8x) 
A|--7xx--7xx--7xx---7x----77----|
E|------------------------------|

Guitar 2:
e|---------------------------|
B|---------------------------|
G|---------------------------|   
D|--7X7X7X7-X-5X5---------—--| (8x) 
A|--7X7X7X7-X-5X5------------|
E|--5X5X5X5-X-3X3------------|


Then
e|-----0-----0-------------|
B|-----0-----0-------------|
G|-----0-----0-------------|   
D|-----7-----7----------—--| (let ring)
A|-----7-----7-------------|
E|-----5-----5-------------|
----------------------------------------------------------------


Verse 1: 

Ganito ang pagkakasunod --- (1,2,1,3,1,2,1,4)  Ok>??!?
1. 
e|-------------------------|
B|-------------------------|
G|------444-555-777--44----| 
D|--777-----------------55-| 
A|-------------------------|
E|-------------------------|

2.
e|--------------------------|
B|--------------------------|
G|------444-----------------|
D|--777-----555—-77--55--44-|
A|--------------------------|
E|--------------------------|
[ Tab from: http://www.guitartabs.cc/tabs/k/kjwan/twilight_tab_ver_2.html ]
3.
e|-----------------------------------|
B|-----------------------------------|
G|--555--777--999--777--5-4----------|
D|-------—---------------------------|
A|-----------------------------------|
E|-----------------------------------|

4.
e|--------------------------------|
B|--------------------------------|
G|--999--777--555--444---4--------|
D|-------—-------------7----------|
A|--------------------------------|
E|--------------------------------|

Refrain:
e|--------------------------------|
B|--10---10---10---10---10-10-----|
G|----9-9--9-9--9-9--9-9--9--9----|
D|--------—-----------------------|  (4x)
A|--------------------------------|
E|--------------------------------|
Guitar 1:
e|------------------------------|
B|--5xx--5xx--5xx---5x----55----|
G|--6xx--6xx--6xx---5x----55----|   
D|--7xx--7xx--7xx---6x----66—---| (8x) 
A|--7xx--7xx--7xx---7x----77----|
E|------------------------------|

Guitar 2:
e|---------------------------|
B|---------------------------|
G|---------------------------|   
D|--7X7X7X7-X-5X5---------—--| (8x) 
A|--7X7X7X7-X-5X5------------|
E|--5X5X5X5-X-3X3------------|
Eto ung una...
-
e|--------------------|
B|--------------------|
G|--7/9-99-767—-7x7---|
D|--7/9-99-767--7x7---|	
A|--5/7-77-545--5x5---|
E|--------------------|
 
Next... 

e|---------------------------------|
B|---------------------------------|
G|--7/9-99-767---------------9/8---|
D|--7/9-99-767-----7---5-7---9/8---|	
A|--5/7-77-545-----7---5-7---7/6---|
E|-----------------5---3-5---------|

Next...

e|----------------|
B|----------------|
G|--7/9-99-767----|
D|--7/9-99-767----|
A|--5/7-77-545----|
E|----------------|
(Drums)

e|----------------|
B|----------------|
G|--7/9-99-767----|
D|--7/9-99-767----|
A|--5/7-77-545----|
E|----------------|

e|---------^4---------^4--------|
B|---------^4---------^4--------| ( ^ means bend up  ^_^)
G|---------^4---------^4--------|			
D|------6----------6------6-----|
A|----4----------4----------4---|
E|--5----------5----------------|

e|-----0-----0-------------|
B|-----0-----0-------------|
G|-----0-----0-------------|   
D|-----7-----7----------—--| (let ring)
A|-----7-----7-------------|
E|-----5-----5-------------|

e|---------^4---------^4--------|
B|---------^4---------^4--------| 
G|---------^4---------^4--------|			
D|------6----------6------6-----| 
A|----4----------4----------4---|
E|--5----------5----------------|


            Sana magusuthan nyo ^_^ 
            Comments and Suggestion? Friendster?
            ra_anthony18@yahoo.com and ra_my2nd_acc@yahoo.com