Kjwan - Twilight Chords & Tabs

 

Twilight Chords & Tabs

Kjwan Chords & Tabs

Version: 1 Type: Tab 0 ratings
1 star 2 stars 3 stars 4 stars 5 stars
comments

Twilight Tab

Twilight by KJWAN
Tabbed by: apong_makulit
Tuning: standard

Pakinggan nyo na lang po ung song para sa timing

Legend:
X-palm mute

Intro:

e|---------------------------|
B|---------------------------|
G|----------5----------------|  (4x)
D|----7---7---7----7-75h7-5-|
A|---------------------------|
E|---------------------------|

Guitar 1:

e|---------------------------|
B|---------------------------|
G|--4-5-4--5-4--5-4--5-4-----|  
D|--4-5-4--5-4--5-4--5-4-----|  
A|--2-3-2--3-2--3-2--3-2-----|
E|---------------------------|

Guitar 2:

e|---------------------------|
B|---------------------------|
G|---------------------------|  
D|--7--7--7--7----5--5------|  (4x)
A|---------------------------|
E|---------------------------|

Then...

e|---------------------------|
B|---------------------------|
G|---------------------------|   
D|--7X7X7X7-X-5X5-----------| (8x) 
A|--7X7X7X7-X-5X5------------|
E|--5X5X5X5-X-3X3------------|

Then
e|-----0------------0-------------|
B|-----0------------0-------------|
G|-----0------------0-------------|   
D|-----7------------7------------| (let ring)
A|-----7------------7-------------|
E|-----5------------5-------------|

Verse 1: 

Eto po ang sequence(1,2,1,3,1,2,1,4)
1.
e|-------------------------|
B|-------------------------|
G|------444-555-777--44----| 
D|--777-----------------55-| 
A|-------------------------|
E|-------------------------|

2.
e|------------------------|
B|------------------------|
G|------444---------------|
D|--777-----555-777777---|
A|------------------------|
E|------------------------|

3.
e|-----------------------------------|
B|-----------------------------------|
G|--555--777--999--777--5-4----------|
D|----------------------------------|
A|-----------------------------------|
E|-----------------------------------|

4.
e|--------------------------------|
B|--------------------------------|
G|--999--777--555--444---4--------|
D|--------------------7----------|
A|--------------------------------|
E|--------------------------------|
[ Tab from: http://www.guitartabs.cc/tabs/k/kjwan/twilight_tab.html ]
Refrain:
e|--------------------------------|
B|--10---10---10---10---10-10-----|
G|----9-9--9-9--9-9--9-9--9--9----|
D|-------------------------------|  (4x)
A|--------------------------------|
E|--------------------------------|

Chorus:
e|---------------------------|
B|---------------------------|
G|---------------------------|   
D|--7X7X7X7-X-5X5-----------| (8x) 
A|--7X7X7X7-X-5X5------------|
E|--5X5X5X5-X-3X3------------|

Verse 2:

e|------------------------|
B|------------------------|
G|------555---------------|
D|--777-----555-777777---| paulit-ulit lng!!
A|------------------------|
E|------------------------|

Repeat refrain
Repeat chorus

Then..
e|---------------------------|
B|---------------------------|   
G|--777-555-44-5------------|  
D|--777-555-44-5-------------|
A|--555-333-22-3-------------|
E|---------------------------|

e|-----------------------|
B|-----------------------|
G|-----------------------|   
D|--7X7-----------------|
A|--7X7------------------|
E|--5X5------------------|

e|---------------------------|
B|---------------------------|   
G|--777-555-44-5------------|  
D|--777-555-44-5-------------|
A|--555-333-22-3-------------|
E|---------------------------|

e|-----------------------|
B|-----------------------|
G|-----------------------|   
D|--7-X-77--------------|
A|--7-X-77---------------|
E|--5-X-55---------------|

e|---------------------------|
B|---------------------------|   
G|--777-555-44-5------------|  
D|--777-555-44-5-------------|
A|--555-333-22-3-------------|
E|---------------------------|
(drums)
e|---------------------------|
B|---------------------------|   
G|--777-555-44-5------------|  
D|--777-555-44-5-------------|
A|--555-333-22-3-------------|
E|---------------------------|

e|------------------------|
B|------------------------|
G|------5------5----------|   
D|--777-5--777-5--7-5-----| (paulit-ulit na yan hanggang matapos) 
A|--777-3--777-3--7-5-----| 
E|--555----555----5-3-----|
pg nahihirapan kau pwd rn ganito..parehas lng nmn tunog eh!!
e|------------------------|
B|------------------------|
G|------------------------|   
D|--777-10--777-10--7-5---| 
A|--777-10--777-10--7-5---| 
E|--555-8---555-8---5-3---|

comments/suggestions email me 
apong_makulit@yahoo.com/txt me 09283006532!!rate nyo ha hirap mgtab eh!! enjoy!!!!
Comments