Kjwan - Surface Chords & Tabs

 

Surface Chords & Tabs

Kjwan Chords & Tabs

Version: 1 Type: Tab 0 ratings
1 star 2 stars 3 stars 4 stars 5 stars
comments

Surface Tab

Song: Surface
Artist/Band: Kjwan
Album: Kjwan
Tabbed by: bogey
Tuning: Drop D

Intro:

E|------------------------------------------------------------------|	
B|------------------------------------------------------------------|
G|------------------------------------------------------------------|
D|--------------------3-------------------------------3-------------|4x
A|--3h5-3---------3h5----3h5-------3h5-3----------3h5----3h5--------|
D|--------3h5𦠨--------------3-0--------3h5𦠨------------3h5----|

Verse:

E|---------------------------|
B|---------------------------|
G|---------5------7----------|
D|---------5------7----------|4x
A|---------3------5----------|
D|---------------------------|

Chorus:

E|---------------------------------------------|
B|---------------------------------------------|
G|---------------------------------------------|
D|---------------------------------------------|4x
A|--3h5-3h5-3h5-3h5-----3h5-3h5-3h5-3h5--------|
D|---------------------------------------------|
     A cold surface...

Repeat Intro

Verse 2:
[ Tab from: http://www.guitartabs.cc/tabs/k/kjwan/surface_tab.html ]
E|---------------------------|
B|---------------------------|
G|---------5------7----------|
D|---------5------7----------|4x
A|---------3------5----------|
D|---------------------------|

Bridge: (drums only)

So this is how you mend...

Chorus:

E|-----------------------------------------|
B|-----------------------------------------|
G|-----------------------------------------|
D|-----------------------------------------|
A|----3h5-3h5-3---3h5-3h5--3h5-------------|4x
D|-----------------------------------------|

E|-----------------------------------------|
B|-----------------------------------------|
G|-----------------------------------------|
D|-----------------------------------------|
A|----3h5-3h5-3---3h5-3h5--3h5-------------|8x
D|-----------------------------------------|
  A cold surface...

Repeat Intro 1x and then...

E|-------------------------------------------------------------------|
B|-------------------------------------------------------------------|
G|-------------------------------------------------------------------|
D|-------3------------------3------------------3---------------------|
A|---3h5----3h5---------3h5----3h5--------3h5----3h5-----------------|
D|--------------3h5----------------3h5----------------3h5------------|
Comments