Kjwan - Someday Chords & Tabs

 

Someday Chords & Tabs

Kjwan Chords & Tabs

Version: 1 Type: Tab 0 ratings
1 star 2 stars 3 stars 4 stars 5 stars
comments

Someday Tab

   
                  someday by kjwan
tabbed by:Timothy Salera
Email:timsalera@yahoo.com

Tuning:standard
E,A,D,G,B,E

                                   Intro and verses
[ Tab from: http://www.guitartabs.cc/tabs/k/kjwan/someday_tab.html ]
e|--------3---3---3------------------------------------------------------|
B|--------3---3---3-----2-----5----2-------------------------------------|
G|----------------------0---------------0-----------------0------4-------|
D|----------------------2--------------------------2---------------------|
A|-----------------------------------------------------------------------|
E|---0-------------------------------------------------------------------|


                                  chorus


e|-----------------------------------------------------------------------|
B|------0----------------------------------------------------------------|
G|------------0-----------------2---------0------------------------------|
D|---------------2-------------------------------------4-----------------|
A|-----------------------------------------------------------------------|
E|-----------------------------------------------------------------------|
Comments