Kjwan - Daliri Chords & Tabs

 

Daliri Chords & Tabs

Kjwan Chords & Tabs

Version: 3 Type: Tab 0 ratings
1 star 2 stars 3 stars 4 stars 5 stars
comments

Daliri Tab

INTRO

B   -----------------------------------------------------------------------------------------------------------|
A   -----------------------------------------------------------------------------------------------------------|
R   -----------------------------------------------------------------------------------------------------------|
1   ---13--13--13--11--11--11--9--9--9--7--7--7--6--7--6--7--9--9--9--11--11--11---6--6--6--7--7--7--9--9-9----|
    ----0---0---0---0---0---0--0--0--0--0--0--0--0--0--0--0--0--0--0---0---0---0---0--0--0--0--0--0--0--0-0----|
    -----------------------------------------------------------------------------------------------------------|

B   -------------------------------------------------|
A   -------------------------------------------------|
R   -------------------------------------------------|
2   -------------------------------------------------|
    -----9--9--9--7--7--7--6--6--6--4--4--4--2--2-2--|
    -----0--0--0--0--0--0--0--0--0--0--0--0--0--0-0--|

B   ---------------------------------------------------------|
A   ---------------------------------------------------------|
R   ----8--8--8---9---9---9---6--6--6--8--8--8--8--8--6--6---|
3   ----9--9--9--11--11--11---6--6--6--7--7--7--9--9--9--9---|
    ----0--0--0---0---0---0---0--0--0--0--0--0--0--0--0--0---|
    ---------------------------------------------------------|

B   ------------------------------------------------|
A   ------------------------------------------------|
R   ----7--7--7--6--6--6--9--9--9--7--7--7--6--6-6--|
4   ----9--9--9--7--7--7--6--6--6--4--4--4--7--7-7--|
    ----0--0--0--0--0--0--0--0--0--0--0--0--0--0-0--|
    ------------------------------------------------|


* For the stanza, I will only give you the chords and its progression. It's your job to 
its PROPER strumming and dynamics. *
STANZA 1
-----------------------------------------------------------|
----------(0)---------------------------(0)----------------|
-----------9-----------------------------9-----------------|
-----------9-----------------------------9-----------------|
-----------0-----------------------------7-----------------|
-----------------------------------------0-----------------|
Alam mo bang                           kanina pa ako
   magdamag nang                       nakatingin sa iyo.
At di mo lang alam                  sa gitna ng kadiliman,
       di mapakali,                                                                             .

---------------------------|
---------------------------|
---------------------1-----|
---------------------2-----|
---------------------2-----|
---------------------0-----|
             ako'y nabighani

PRE-CHORUS 1
---------------0---------------0---------------0---------------0----|
---------------0---------------0---------------0---------------0----|
---------------2---------------4---------------6---------------4----|
---------------4---------------6---------------7---------------6----|
---------------4---------------6---------------7---------------6----|
---------------x---------------x---------------x---------------x----|
Di mo lang alam              inaasam             ang       panahong
           makapiling ka            sa una't

-----------------------|
-----------------------|
----2------------------|
----2------------------|
----0------------------|
-----------------------|
huling pagkakataon

CHORUS
--------------------------------2---------------------------------------------2---------------|
---------9----------------------2---------------------------------------------2---------------|
---------9----------9-----------2--------------1----7----------1--------------2-----------1---|
--------11----------9-----------4--------------2----7----------2--------------4-----------2---|
---------0----------7-----------4--------------2----5----------2--------------4-----------2---|
--------------------0-----------2--------------0---------------0--------------2-----------0---|
Dahil dito   sa mariposa  ay mahirap ang nag-iisa. Dito sa mariposa ako lang yatang nag-iisa.



B   ---------------------------------------------------------|
A   ---------------------------------------------------------|
R   ---------------------------------------------------------|
5   ---13--13--13--11--11--11--9--9--9--7--7--7--6--7--6--7--|
    ----0---0---0---0---0---0--0--0--0--0--0--0--0--0--0--0--|
    ---------------------------------------------------------|
[ Tab from: http://www.guitartabs.cc/tabs/k/kjwan/daliri_tab_ver_3.html ]
B   ---------------------------------------------------------|
A   ---------------------------------------------------------|
R   ----8--8--8---9---9---9---6--6--6--8--8--8--8--8--6--6---|
6   ----9--9--9--11--11--11---6--6--6--7--7--7--9--9--9--9---|
    ----0--0--0---0---0---0---0--0--0--0--0--0--0--0--0--0---|
    ---------------------------------------------------------|

B   ------------------------------------------------|
A   ------------------------------------------------|
R   ----7--7--7--6--6--6--9--9--9--7--7--7--6--6-6--|
7   ----9--9--9--7--7--7--6--6--6--4--4--4--7--7-7--|
    ----0--0--0--0--0--0--0--0--0--0--0--0--0--0-0--|
    ------------------------------------------------|


Repeat Bar 6 & 7

STANZA 2
------------------------------------------------------------------------------------------4---------------------|
----------(0)---------------------------(0)--------------------------(0)------------------4---------------------|
-----------9-----------------------------9----------------------------9-------------------4---------------------|
-----------9-----------------------------9----------------------------9-------------------6---------------------|
-----------0-----------------------------7----------------------------0-------------------6---------------------|
-----------------------------------------0------------------------------------------------4---------------------|
   Nagsisising                        matatapos ang gabing alam    naman natin    meron nang taning

--------------------------------------------------------------------------|
-----------9--------------9-----------------------------------------------|
-----------9--------------9------------------------------------------1----|
-----------9--------------9------------------------------------------2----|
-----------0--------------7------------------------------------------2----|
--------------------------0------------------------------------------0----|
      nagsisisi,       nagising sa katotohanang di ka naman talaga akin

PRE-CHORUS 2
** This is optional.  You can use Pre-Chorus 1 if you like.  But, I really suggest that 
use this one. **
---------------------------------------------------------------------------------------------------------------|
----------------5----5----5----4----5----5----5---5----4-----5---5--5--5-----5---5-----------------------------|
----------------2----2----2----2----2----4----4---4----4-----4---6--6--6-----8---6------7----5----4----5-------|
---------------(4)--(4)--(4)--(4)--(4)--(6)--(6)-(6)--(6)---(6)--7--7--7-----7---7------4----4----4----4-------|
---------------------------------------------------------------------------------------(6)--(6)--(6)--(6)------|
---------------------------------------------------------------------------------------------------------------|
Di mo lang alam                     i    na asam                            ang    
      ma   ka

----------------------------------------------------------------------------------------------|
----------------5----5----5----4----5-----5----5----5----4----5-------------------------------|
----------------2----2----2----2----2-----4----4----4----4----4---------------2---------------|
---------------(4)--(4)--(4)--(4)--(4)---(6)--(6)--(6)--(6)--(6)--------------2---------------|
------------------------------------------------------------------------------0---------------|
----------------------------------------------------------------------------------------------|
                pi       ling   ka                       sa una't          huling pagkakataon


B   -----------------------------|
A   -----------------------------|
R   ----2-2-2----2-2-2----2------|
8   ----2-2-2----2-2-2----2------|
    ----0-0-0----0-0-0----0------|
    -----------------------------|

Do Chorus
Bridge

-----------------------------------------------------2-----------------------------------|
---------9-------------------------------------------2-----------------------------------|
---------9--------------------9----------------------2-----------------------------------|
--------11--------------------9----------------------4-----------------2--2--2--2--2--2--|
---------0--------------------7----------------------4-----------------2--2--2--2--2--2--|
------------------------------0----------------------2-----------------0--0--0--0--0--0--|
Ayoko nang mag-isa     Ayoko nang mag-isa  Ayoko   nang mag-isa Ayoko na  na na   na

Ending
---------------------------------------|
---------------------------------------|
---------------------------------------|
-----------2-2--2-2--2-2--2-2----------|
--7--7--4--2-2--2-2--2-2--2-2----------|
--5--4--2--0-0--0-0--0-0--0-0----------|
Comments