Kjwan - Daliri Chords & Tabs

 

Daliri Chords & Tabs

Kjwan Chords & Tabs

Version: 1 Type: Bass Tab 0 ratings
1 star 2 stars 3 stars 4 stars 5 stars
comments

Daliri Bass Tab

ayus yan mga kapatid zeprahin nyo pra makuha nyo kaagad kung may mali email nyo nlng
ako vi0lent_0ffender@yahoo.com ung ow nyan zero nni2gurolng poh 0 kung gusto nyo rin
ako mging friendster yan din ang email koh dun cge.....kyo n poh ang humusga 
""alex"""bassist for band called *badhairday* 
 
 
artist;kjwan
song; daliri 

    

intro
E:|----------------------------------------|
A:|----------------------------------------|
D:|----------------------------------------|
G:|------0-3-5-7-5-3h5-3-5-3-0-3-00--------| 

E:|----------------------------------------|
A:|----------------------------------------|
D:|----------------------------------------|
G:|------0-3-5-7-5-3h5-3-5-3-0-3-00--------|                      

[ Tab from: http://www.guitartabs.cc/tabs/k/kjwan/daliri_btab.html ]
verse
E:|----------------------------------------|
A:|----------------------------------------|   
D:|---------0----------0---------0---------|
G:|---0-3-5---3--0-3-5---3--0-3-5--3-------|
 
E:|----------------------------------------|
A:|----------------------------------------|
D:|--------0----------3h5p3-------0--------|
G:|--0-3-5---3--0-3-5-------0-3-5---3------|
E:|----------------------------------------|
A:|----------------------------------------|   
D:|---------0----------0---------0---------|
G:|---0-3-5---3--0-3-5---3--0-3-5--3-------|
 
E:|----------------------------------------|
A:|----------------------------------------|
D:|--------0----------3h5p3-------0--------|
G:|--0-3-5---3--0-3-5-------0-3-5---3------|

 
 
CHORUS:

E:|----------------------------------------|
A:|----------------------------------------|
D:|----------------------------------------|
G:|----333333---5555-666--55555---333333---|     

E:|----------------------------------------|
A:|----------------------------------------|   
D:|----------------------------------------|
G:|--55555----666---55555------------------|  

2nd verse;
 
E:|----------------------------------------|
A:|----------------------------------------|   
D:|---------0----------0---------0---------|
G:|---0-3-5---3--0-3-5---3--0-3-5--3-------|
 
E:|----------------------------------------|
A:|----------------------------------------|
D:|--------0----------3h5p3-------0--------|
G:|--0-3-5---3--0-3-5-------0-3-5---3------|

E:|----------------------------------------|
A:|----------------------------------------|   
D:|---------0----------0---------0---------|
G:|---0-3-5---3--0-3-5---3--0-3-5--3-------|
 
E:|----------------------------------------|
A:|----------------------------------------|
D:|--------0----------3h5p3-------0--------|
G:|--0-3-5---3--0-3-5-------0-3-5---3------|



s chorus poh isabay nyo nlng poh s melow ng guitara
kmi ang banda s de jesus comp.nova maraming salamat!!!

"vocals dhanny
guitarist;jeff
bassist;alex
drummer;ezer
Comments