Kittie - Wolves Chords & Tabs

 

Wolves Chords & Tabs

Kittie Chords & Tabs

Version: 1 Type: Bass Tab 0 ratings
1 star 2 stars 3 stars 4 stars 5 stars
comments

Wolves Bass Tab

Intro

G---------------|
D---------------|
A---------------|
C--320430545----|

Verses

G------------------|
D------------------|
A------------------|
C--210320210324----|

Pre-Chorus

G------------------------------------------|
D------------------------------------------|
A---------4^5---------------------4^5------|
C--000--------0003^4---000--------0003^54--|

Chorus
[ Tab from: http://www.guitartabs.cc/tabs/k/kittie/wolves_btab.html ]
G----------------------------------------|
D----------------------------------------|
A-7776--06------------6-------6--0-756---|
C--------------------0--------0----------|

-----------------------------    ---------------------------|
-----------------------------    ---------------------------|
-0------\6-------------606---    0------\6------------------|
---------------0000----------    ------------0------4--605--|

Bridge

G--------------------|
D--------------------|
A------------4^5-----|
C--000---------------|

End

G-------------------    ---------|
D-------------------    ---------|
A------------320----    ---------|
C---320-------------    -3-------|
Comments